Too Little Too Late-Hoobastank
Hoobastank
my tab rip off-z:
http://www.angelfire.com/tx4/tabz/tabs.html


Drop D:
D A D G B E


Intro: 3/4 time w/ phase shifter

gtr. 2

e-------------------------------------------------
b-------------------------------------------------
g-9---9--9-9---9-9-9-9--9---9-9-9-9--9---9-9-9-9--
d-9---9--9-9---9-9-9-9--9---9-9-9-9--9---9-9-9-9--
a-7---7--7-7---7-7-7-7--7---7-7-7-7--7---7-7-7-7--
d-7---7--7-7---7-7-7-7--6---6-6-6-6--6---6-6-6-6--

e------------------------------------------------------
b----------------------------7---7-7---7--7---7-7-7-7--
g-7---7-7---7--7----7-7-7-7--x---x-x---x--x---x-x-x-x--
d-7---7-7---7--7----7-7-7-7--4---4-4---4--4---4-4-4-4--
a-5---5-5---5--5----5-5-5-5--0---0-0---0--0---0-0-0-0--
d-5---5-5---5--5----5-5-5-5--0---0-0---0--0---0-0-0-0--

gtr. 2

e------------------------------------------------------
b------------------------------------------------------
g-----------------------------------------7---7-7-7-7--
d10--1010--10-10---10101010-10--1010--10--7---7-7-7-7--
a-8---8-8---8--8----8-8-8-8--8---8-8---8--5---5-5-5-5--
d-7---7-7---7--7----7-7-7-7--7---7-7---7--5---5-5-5-5--

gtr. 1

e------------------------------------------------------
b------------------------------------------------------
g--------------0---------------------------------------
d---------10-------10---------------10----7---------7--
a-----8-----------------8-------8--------------5-------
d-7-------------------------7-------------5------------

Heavy Dist

gtr. 3

e-----------------------------------------------------------------
b----------------------------------------------------3---3----3-3-
g----------------------------------------------------2---2----2-2-
d-7----7---7-7--7----7---7---2----2---2-2---2----2---0---0----0-0-
a-7----7---7-7--7----7---7---2----2---2-2---2----2---0---0----0-0-
d-7----7---7-7--7----7---7---2----2---2-2---2----2---0---0----0-0-

gtr. 2

e-----------------------------------------------------------------
b-5----5-----5--5----5--5/7--75----5---5--5----5--510--10---10---
g-x----x-----x--x----x--x-x--x-x----x---x--x----x--x-x---x----x---
d-2----2-----2--2----2--2/4--42----2---2--2----2--2/7---7----7---
a-----------------------------------------------------------------
d-----------------------------------------------------------------

gtr. 3

e-----------------------------------------------------------------
b-3----3----3-----------------------------------------------------
g-2----2----2-----------------------------------------------------
d-0----0----0-----10-----10------10------5------5----5----5-----5-
a-0----0----0-----10-----10------10------5------5----5----5-----5-
d-0----0----0-----10-----10------10------5------5----5----5-----5-

gtr. 2

e-----------------------------------------------------------------
b10---10--1012-12/13----13--13---13-----1312-----12------12-------
g-x----x---x-x--x--x-----x---x----x------x-x------x-------x-------
d-7----7---7/9--9/10----10--10---10-----109------9-------9-------
a-----------------------------------------------------------------
d-----------------------------------------------------------------

Verses:

e-----------------------------------------------------------
b-----------------------------------------------------------
g-9-----9---9-9---9-9-9-9-9-9--9-----9---9-9---9-9-9-9-9-9--
d-9-----9---9-9---9-9-9-9-9-9--9-----9---9-9---9-9-9-9-9-9--
a-7-----7---7-7---7-7-7-7-7-7--7-----7---7-7---7-7-7-7-7-7--
d-7-----7---7-7---7-7-7-7-7-7--6-----6---6-6---6-6-6-6-6-6--

e-----------------------------------------------------------
b------------------------------7-----7---7-7---7-7-7-7-7-7--
g-7-----7---7-7---7-7-7-7-7-7--x-----x---x-x---x-x-x-x-x-x--
d-7-----7---7-7---7-7-7-7-7-7--4-----4---4-4---4-4-4-4-4-4--
a-5-----5---5-5---5-5-5-5-5-5--0-----0---0-0---0-0-0-0-0-0--
d-5-----5---5-5---5-5-5-5-5-5--0-----0---0-0---0-0-0-0-0-0--

e-----------------------------------------------------------
b-----------------------------------------------------------
g------------------------------7-----7---7-7---7-7-7-7-7-7--
d-3-----3---3-3---3-3-3-3-3-3--7-----7---7-7---7-7-7-7-7-7--
a-3-----3---3-3---3-3-3-3-3-3--5-----5---5-5---5-5-5-5-5-5--
d-3-----3---3-3---3-3-3-3-3-3--5-----5---5-5---5-5-5-5-5-5--

Chorus:

x2
e-----------------------------------------------------------------
b-----------------------------------------------------------------
g-----------------------------------------------------------------
d-7--7--7---7--7--2--2--2---2--2--5--5--5---5--5--7--7--7---7--7--
a-7--7--7---7--7--2--2--2---2--2--5--5--5---5--5--5--5--5---5--5--
d-7--7--7---7--7--2--2--2---2--2--5--5--5---5--5------------------

e-----------------------------------------------------------------
b-----------------------------------------------------------------
g-----------------------------------------------------------------
d-7--7--7---7--7--2--2--2---2--2--5--5--5---5--5--10--10--10---10-
a-7--7--7---7--7--2--2--2---2--2--5--5--5---5--5--10--10--10---10-
d-7--7--7---7--7--2--2--2---2--2--5--5--5---5--5--10--10--10---10-

e-----------------------------------------------------------------
b-----------------------------------------------------------------
g-2---------------------------------------------------------------
d-0-------------------------------3-----3---3-----5-----5---5-----
a-0-------------------------------3-----3---3-----5-----5---5-----
d-0-------------------------------3-----3---3-----5-----5---5-----

Interlude: (the high note are the harmonics sounds, but actually
played on the low D string randomly)

e-----------------------------------------------------------------
b------------------------------19-19------------------------------
g-------------------------------------17-17--14-14------14--------
d---------------------------------------------------16------------
a-2-2----2----0-2-2----2----0-------------------------------17-17-
d-2-2----2----0-2-2----2----0-------------------------------------

e-----------------------------------------------------------------
b-----------------------------------------------------------------
g-----------------------------------------------------------------
d-----------------------------------------------------------------
a-2-2----2----0-2-2----2----0-------2----2----2------2--2----2----
d-2-2----2----0-2-2----2----0-------2----2----2------2--2----2----

A5, E5, D5, C5, G5 F5, G5

Outro:

F5, G5, D5, D5
F5, G5, Asus2


that’s almost all


trevor jones
[email protected]


Текст, аккорды и табулатура для песни "Too Little Too Late", исполняет "Hoobastank".
Используемые в песне аккорды можно найти в разделе Как брать аккорды. Аккорды для шестиструнной гитары. Другие песни можно найти на нашем сайте, воспользовавшись алфавитным указателем вверху страницы.


 
Ошибка в тексте? Выделите ошибку и нажмите Ctrl+Enter