ARTIST:HOOBASTANK
SONG:RUNNING AWAY
TABBER:JAPANESE182

INTRO/VERSE
e|------------------------------------------|
B|------------------------------------------|
G|------------------------------------------|
D|-10-10-10-7--9-9-9-9--10-10-10-7--9-9-9-9-|
A|--7--7--7-7--7-7-7-7---7--7--7-7--7-7-7-7-|
D|--7--7--7-7--7-7-7-7---7--7--7-7--7-7-7-7-|

e|-------------------(5)------------------|
B|-------------------(5)------------------|
G|-------------------(6)----------5-5-5-4-|
D|-5-5-5-7--9-9-9-9--(7)-3-3-3-5--x-x-x-x-|
A|-5-5-5-5--5-5-5-5--(7)-3-3-3-3--3-3-3-3-|
D|-5-5-5-5--5-5-5-5--(5)-3-3-3-3--3-3-3-3-|

CHORUS
e|-------------------------------------------------|
B|-------------------------------------------------|
G|-------------------------------------------------|
D|-xxxx-7-7-7-7--9-9-9-9--10-10-10-10--12-12-12-12-|
A|-xxxx-7-7-7-7--9-9-9-9--10-10-10-10--12-12-12-12-|
D|-xxxx-7-7-7-7--9-9-9-9--10-10-10-10--12-12-12-12-|

e|---------------------------------------|
B|---------------------------------------|
G|---------------------------------------|
D|-3-3-3-3-3-3-3-3--10-10-10-10--5-5-5-5-|
A|-3-3-3-3-3-3-3-3--10-10-10-10--5-5-5-5-|
D|-3-3-3-3-3-3-3-3--10-10-10-10--5-5-5-5-|

e|------------------------------------|
B|------------------------------------|
G|------------------------------------|
D|-7-7-7-7--2-2-2-2--3-3-3-3--5-5-5-5-|
A|-7-7-7-7--2-2-2-2--3-3-3-3--5-5-5-5-|
D|-7-7-7-7--2-2-2-2--3-3-3-3--5-5-5-5-|

INTERLUDE 1
e|-------0-----------0-------|
B|-----0---0-------0---0-----|
G|---5-------5---5-------5---|
D|-7-----------7-----------7-|
A|---------------------------|
D|---------------------------|X2

VERSE
GUITAR 1
e|-------0------------0----------0------------0-----|
B|---------0------------0----------0--------0---0---|
G|---5-------5----5----------7-------7----2-------2-|
D|-7---7--------7---7------5---5--------3-----------|
A|--------------------------------------------------|
D|--------------------------------------------------|

GUITAR 2
e|-----------------|----------------|---------------|
B|-----------------|----------------|---------------|
G|-----------------|----7---5--7--9-|----10-7----10-|
D|-7--------5----3-|----x---x--x--x-|-----x-x-----x-|
A|-x--------x----x-|----5---3--5--7-|-----8-5-----8-|
D|-7--------5----3-|----------------|---------------|

INTERLUDE 2
e|-------0-----------0-------|
B|-----0---0-------0---0-----|
G|---5-------5---5-------5---|
D|-7-----------7-----------7-|
A|---------------------------|
D|---------------------------|X2

e|-------0-----------0-------|
B|-----0---0-------0---0-----|
G|---4-------4---4-------4---|
D|-5-----------5-----------5-|
A|---------------------------|
D|---------------------------|X2

CHORUS

BRIDGE
e|--------------------------|--------------------------|
B|--------------------------|--------------------------|
G|--------------------------|--------------------------|
D|-7-7-7-7-x-7--7-7-7-7-x-7-|-2-2-2-2-x-2--2-2-2-2-x-2-|
A|-7-7-7-7-x-7--7-7-7-7-x-7-|-2-2-2-2-x-2--2-2-2-2-x-2-|
D|-7-7-7-7-x-7--7-7-7-7-x-7-|-2-2-2-2-x-2--2-2-2-2-x-2-|

e|--------------------------|-----------------------------------|
B|--------------------------|-----------------------------------|
G|--------------------------|-7-7-7-7-7-7-7-7-------------------|
D|-7-7-7-7-x-7--7-7-7-7-x-7-|-7-7-7-7-7-7-7-7--3-3-3-3--5-5-5-5-|
A|-7-7-7-7-x-7--7-7-7-7-x-7-|-5-5-5-5-5-5-5-5--3-3-3-3--5-5-5-5-|
D|-7-7-7-7-x-7--7-7-7-7-x-7-|------------------3-3-3-3--5-5-5-5-|

CHORUS X2


Текст, аккорды и табулатура для песни "Running Away", исполняет "Hoobastank".
Используемые в песне аккорды можно найти в разделе Как брать аккорды. Аккорды для шестиструнной гитары. Другие песни можно найти на нашем сайте, воспользовавшись алфавитным указателем вверху страницы.


 
Ошибка в тексте? Выделите ошибку и нажмите Ctrl+Enter