Pieces-Hoobastank
Hoobastank

my tab rip off-z:
http://www.angelfire.com/tx4/tabz/tabs.html

Open E:
E B E G# B E


Intro:

e------7-------7-------7-------7-------7-------7-------7----------
b------8-------8-------8-------8-------8-------8-------8----------
g-----10------10------10------10------10------10------10----------
e-0-0-----0-0-----0-0-----0-0-----0-0-----0-0-----0-0-----0-0-----
b---------------------------------------------------------0-0-7--
e-----------------------------------------------------------------

e------7-------7-------7-------7-------7-------7--0-0-0-0-0-0-0-0-
b------8-------8-------8-------8-------8-------8--0-0-0-0-0-0-0-0-
g-----10------10------10------10------10------10--0-0-0-0-0-0-0-0-
e-------------------------------------------------0-0-0-0-0-0-0-0-
b-0-0-----0-0-----0-0-----0-0-----0-0-----0-0---------------------
e-0-0-----0-0-----0-0-----0-0-----0-0-----0-0---------------------


x2
e--------------------------------------
b--------------------------------------
g--------------------------------------
e--------------------------------------
b-10/12-12-12-12-6-6-6-6-5-5-5-5-0-0-0-
e-10/12-12-12-12-6-6-6-6-5-5-5-5-0-0-0-

e--------------------------0-------0---
b--------------------------0-------0---
g--------------------------0-------0---
e--------------------------------------
b-10/12-12-12-12-6-6-6-6-5-----6-5-----
e-10/12-12-12-12-6-6-6-6-5-----6-5-----

e--------------------------------------
b--------------------------------------
g--------------------------------------
e--------------------------------------
b-10/12-12-12-12-6-6-6-6-5-5-5-5-0-0-0-
e-10/12-12-12-12-6-6-6-6-5-5-5-5-0-0-0-


e--------------------------------------
b--------------------------------------
g-11-11-----11-11----------------------
e-10-10-----10-10----------------------
b--8--8------8--8-----3-3-----5-5------
e--8--8-8-8--8--8-8-8-3-3-0-0-5-5-0-0--

Verses:

Fig. 1

e-----------------------------------------------------------------
b-----------------------------------------------------------------
g-----------------------------------------------------------------
e-10/12-12-12------------------10/12-12-12-12-6-6-x-6-5----6-5----
b-10/12-12-12-12-6------------10/12-12-12-12-6-6-x-6-5----6-5----
e-10/12-12-12----6------------10/12-12-12-12-6-6-x-6-5----6-5----

e-----------------------------------------------------------------
b-----------------------------------------------------------------
g-----------------------------------------------------------------
e-10/12-12-12-----------------10-------10--------3----------------
b-10/12-12-12-12-6------------8--------8--------3--------5-------
e-10/12-12-12----6------------8---8-8--8---0-0--3---0-0--5---0-0-
                                   * *      * *      * *      * *

Chorus: Fig. 2

e-0-0-0-0-0-0-0-0-0-0-0-0-0-0-0-0-0-0-----------------------------
b-0-0-0-0-0-0-0-0-0-0-0-0-0-0-0-0-0-0-----------------------------
g-0-0-0-0-0-0-0-0-0-0-0-0-0-0-0-0-0-0-----------------------------
e-0-0-0-0-0-0-0-0-0-0-0-0-0-0-0-0-0-01010101010101010101010101010-
b-0-0-0-0-0-0-0-0-0-0-0-0-0-0-0-0-0-0-8-8-8-8-8-8-8-8-8-8-8-8-8-8-
e-0-0-0-0-0-0-0-0-0-0-0-0-0-0-0-0-0-0-8-8-8-8-8-8-8-8-8-8-8-8-8-8-

e-----------------------------------------------------------------
b-----------------------------------------------------------------
g-----------------------------------------------------------------
e10-7-7-7-7-7-7-7-7-7-7-7-7-7-8-8-8-8-8-8-8-8-8-8-8-8-81212121212-
b-8-5-5-5-5-5-5-5-5-5-5-5-5-5-6-6-6-6-6-6-6-6-6-6-6-6-61010101010-
e-8-5-5-5-5-5-5-5-5-5-5-5-5-5-6-6-6-6-6-6-6-6-6-6-6-6-61010101010-

Bridge:

e-----7---------------7---------------7---------------7-----------
b-----8---------------8---------------8---------------8-----------
g----10--------------10--------------10--------------10-----------
e-----0-------10------0-------10------0-------10------0-------10--
b-0-0----0-0---8--0-0----0-0---8--0-0----0-0---8--0-0----0-0---8--
e-0-0----0-0---7--0-0----0-0---7--0-0----0-0---7--0-0----0-0---7--

e-----------------------------------------------------------------
b-----------------------------------------------------------------
g----10--------------10--------------10--------------10-----------
e-----8------10-------8-------10------8-------10------8-----------
b-8-8-----8-8-8---8-8-----8-8-8---8-8-----8-8-8---8-8-----8-8/10--
e-8-8-----8-8-----8-8-----8-8-----8-8-----8-8-----8-8-----8-8/10--

Bridge:

e----12------12------12------12------12------12------12------12---
b----12------12------12------12------12------12------12------12---
g-----8-------8-------8-------8-------8-------8-------8-------8---
e-----------------------------------------------------------------
b-0-0-----0-0-----0-0-----0-0-----0-0-----0-0-----0-0-----0-0-----
e-0-0-----0-0-----0-0-----0-0-----0-0-----0-0-----0-0-----0-0-----

e-----------------------------------------------------------------
b-----------------------------------------------------------------
g-----------------------------------------------------------------
e----10------10------10---------------3---------------5-------5---
b-----8-------8-------8--8-8-87------3-------3-------3-------3---
e-8-8-----8-8-----8-8----8-8-87--3-3-----3-3-3p0-2-2-----2-2-----

e----12------12------12------12------12------12------12------12---
b----12------12------12------12------12------12------12------12---
g-----8-------8-------8-------8-------8-------8-------8-------8---
e-----------------------------------------------------------------
b-0-0-----0-0-----0-0-----0-0-----0-0-----0-0-----0-0-----0-0-----
e-0-0-----0-0-----0-0-----0-0-----0-0-----0-0-----0-0-----0-0-----

e-----------------------------------------------------------------
b---------------------------------------------------------------0-
g---------------------------------------------------------------0-
e----10------10------10-----------3-3-3-3-3-3-3-3-5-5-5-5-5-5-5-0-
b-----8-------8-------8--8-8-87--3-3-3-3-3-3-3-3-5-5-5-5-5-5-5---
e-8-8-----8-8-----8-8----8-8-87--3-3-3-3-3-3-3-3-5-5-5-5-5-5-5---

e------------------------------------------------------------0----
b-0--------0---------0-0-------------------------------------0----
g-0--------0---------0-0----------------------------3-3-3-3--0----
e-0-0------0-10------0-0-7--------------------------x-x-x-x-------
b---0---------8----------5---------1-1-1-1-1-1-1-1--3-3-3-3-------
e---0---------8----------5---------3-3-3-3-3-3-3-3----------------

Outro:

x3
e--------------------------------------
b--------------------------------------
g--------------------------------------
e--------------------------------------
b-10/12-12-12-12-6-6-6-6-5-5-5-5-0-0-0-
e-10/12-12-12-12-6-6-6-6-5-5-5-5-0-0-0-

e--------------------------------------
b--------------------------------------
g--------------------------------------
e--------------------------------------
b-10/12-12-12-12-6-6-6-6---0-6-5-------
e-10/12-12-12-12-6-6-6-6---0-6-5-------


that’s all

trevor jones
[email protected]


Текст, аккорды и табулатура для песни "Pieces", исполняет "Hoobastank".
Используемые в песне аккорды можно найти в разделе Как брать аккорды. Аккорды для шестиструнной гитары. Другие песни можно найти на нашем сайте, воспользовавшись алфавитным указателем вверху страницы.


 
Ошибка в тексте? Выделите ошибку и нажмите Ctrl+Enter