Artist- Hoobastank
Song- Pieces
Tabbed by- Jerespaz

Intro- Repeat 8x | Intro Part 2
e|-----7---------|---------------------------------|
b|-----8---------|---------------------------------|
g|-----9---------|-7s9-9-9-9-----------------------|
d|---------------|-7s9-9-9-9-8-8-8-8-7-7-7-7-2-2-2-|
a|-7-7-----------|-5s7-7-7-7-8-8-8-8-7-7-7-7-2-2-2-|
D|---------------|-----------8-8-8-8-7-7-7-7-2-2-2-|
 pm---|

e|---------------------7---------------|
b|---------------------8---------------|
g|-7s9-9-9-9-----------9---------------|
d|-7s9-9-9-9-8-8-8-8-7---8-7-----------|
a|-5s7-7-7-7-8-8-8-8-7---8-7-----------|
D|-----------8-8-8-8-7---8-7-----------|

e|-------------------------------------------|
b|-------------------------------------------|
g|-7s9-9-9-9-----------------------7-7-------|
d|-7s9-9-9-9-8-8-8-8-7-7-7-7-2-2-2-5-5--5-7--|
a|-5s7-7-7-7-8-8-8-8-7-7-7-7-2-2-2-3-3--5-7--|
D|-----------8-8-8-8-7-7-7-7-2-2-2------5-7--|

Verse
e|--------------------------------------|
b|--------------------------------------|
g|-7s9-9-9-9-----7s9-9-9-9--------------|
d|-7s9-9-9-9-8-8-7s9-9-9-9-8-8-7-8-7----|
a|-5s7-7-7-7-8-8-5s7-7-7-7-8-8-7-8-7----|
D|-----------8-8-----------8-8-7-8-7----|

e|------------------------------|
b|------------------------------|
g|-7s9-9-9-9-----7-7------------|
d|-7s9-9-9-9-8-8-5-5-5-7--------|
a|-5s7-7-7-7-8-8-3-3-5-7--------|
D|-----------8-8-----5-7--------|

Chorus
e|----------------------------------------|
b|----------------------------------------|
g|--------5------2------------------------|
d|-2------5(17x)-2(17x)-3-----0-----------|
a|-2(16x)-3------0------3(4x)-0(3x)-------|
D|-2--------------------3-----0-----------|

Bridge (how many times you play each isnt shown but u get the idea)
e|-------------------------------------|
b|-----8------8-------7----------------|
g|-----11-----7-------x-----7----------|
d|-----9------9---5-5-5-5-5-5----------|
a|-7-7----7-7-----5-5-5-5-5-5----------|
D|----------------5-5-5-5-5-5----------|
 pm---|   pm-|    pm-|  pm-| 

Bridge Part II (how many times played isnt shown)
e|-----7--------------------------------------------|
b|-----8-----7--------------------------------------|
g|-----9-----5-----------------7-2-------------9----|
d|-------3-3-3---------------2-5-2-3-3-3-3-3-3-7----|
a|-7-7---------5-5-5-5-5-5---2-3-0-3-3-3-3-3-3-5----|
D|-------------5-5-5-4-4-4---2----------------------|
  pm--|  pm-|  pm-|  pm-|

Any comments or corrections leave 'em in the corrections box at the bottom, thanks.


Текст, аккорды и табулатура для песни "Pieces", исполняет "Hoobastank".
Используемые в песне аккорды можно найти в разделе Как брать аккорды. Аккорды для шестиструнной гитары. Другие песни можно найти на нашем сайте, воспользовавшись алфавитным указателем вверху страницы.


 
Ошибка в тексте? Выделите ошибку и нажмите Ctrl+Enter