Hoobastank: Give it Back
By: Luke Brown 
Notes: Hoobastank's guitarist is actually tuned in open-E, and I'm
not totally sure if their bassist tunes differently because of that
fact. However, I did this tab in standard tuning just to keep things
simple.

Here we go...

Intro (:04)
G:------------------------------------------
D:------------------------------------------
A:7777777777777777--------------------------
E:-----------------0-2-3-0-3-5-0-2-3-0-3-5-1

Intro (:09)
G:--------------------------------------------------------------
D:--------------------------------------------------------------
A:--7-5---4-5----------------------7-5---4-5--------------------
E:0-----0-----0-4-5-0-5-7-0-3-3--0-----0-----0-4-5-0-5-7-0-4-5-7

'continued
G:--------------------------------------------------------
D:--------------------------------------------------------
A:--7-5---4-5---------------------------------------------
E:0-----0-----0-4-5-0-5-7-0-3-3--0-2-3-0-3-5-0-2-3-0-3-5-1

Verse
G:----------------------------------------------------
D:----------------------------------------------------
A:--7-5---4-5------------7-5---4-5--------------------
E:0-----0-------0-4-5--0-----0-----0-4-5-0-5-7-0-4-5-7

'continued             (1st ending)
G:-------------------|------------------------------
D:-------------------|------------------------------
A:--7-5---4-5--------|------------------------------
E:0-----0------0-4-5-|-0-2-3-0-3-5-0-2-3-3-5-0-2-3-5 

'continued (2nd ending)
G:-------------------------
D:-------------------------
A:-------------------------
E:0-2-3-0-3-5-0-2-3-0-3-5-1

Chorus
G:-------------------------------------------------------
D:-------------------------------------------------------
A:------7-7-7-3-3-3-5-5-5-------7-7-7-3-3-3--------------
E:0-0-0-------------------0-0-0-------------3-3-3-3-3-3-3

Bridge
G:---------------------------------------------
D:---------------------------------------------
A:---------------------------------------------
E:-0-1-1-0-1--0-1-1-0-1--0-1-1-0-1--0-1-1-0-1-3

Intro 1x
Chorus 8x
Bridge 1x

Uhh like rap, like cheesy rap...Like I once gave it back; 
and now, and then it was taken from and then I got it back 
again! I want what once was mine!

That should do it!
Email me if you feel so compelled!


Текст, аккорды и табулатура для песни "Give It Back", исполняет "Hoobastank".
Используемые в песне аккорды можно найти в разделе Как брать аккорды. Аккорды для шестиструнной гитары. Другие песни можно найти на нашем сайте, воспользовавшись алфавитным указателем вверху страницы.


 
Ошибка в тексте? Выделите ошибку и нажмите Ctrl+Enter