Artist- Hoobastank
Song- Divine (acoustic)
Tabber- Iconoclast
Tuning- Drop D (DADGBE)

Verse 1
--------------------------------------------------------
--------------------------------------------------------
--------11----------11-----------7----------4-----------
-----12----------11------------7----------5-------------
---9-----------9--------0----5----------5---------------
-9-----------9-------------5-------0--5-----------------

Leading into chorus (strumming not shown)
-------------------------------------------------
-------------------------------------------------
-7---9-------------------------------------------
-7---9-------------------------------------------
-5---7-------------------------------------------
-5---7-------------------------------------------

Chorus (strumming not shown)
-----3-------0-------3-------------------------------
-----3-------0-------3-------------------------------
-7-6-5---5-5-2---7-6-5---5-5-5-5-5-7-----------------
-7-4-5---3-3-2---7-4-5---3-3-3-3-3-5-----------------
-5-4-3---1-3-0---5-4-3---1-3-1-3-1-3-----------------
---4-------3-------4-------3---3---------------------

Verse 1 riff played once

Verse 2 (strumming not shown)
-------------------------------------------------
-------------------------------------------------
-11--11---7--7-----------------------------------
-12--11---7--9-----------------------------------
-9---9----5--5-----------------------------------
-9---9----5--5-----------------------------------

Play lead in to chorus twice, then play chorus

Bridge (2.18)
-------------------------------------------------
-------------------------------------------------
-------------------------------------------------
-0--0-0-0-0-0-0-0--0-0-0-0-0-0-------------------
-0--0-0-0-0-0-0-0--0-0-0-0-0-0-------------------
-0--0-0-0-0-0-0-0--0-0-0-0-0-0-------------------

(strumming not shown for this part)
-------------------------------------------------
----0--0-----------------------------------------
-6--6--7--7--------------------------------------
-4--4--5--0--------------------------------------
-4--4--5--0--------------------------------------
-4--4--5--0--------------------------------------

Play lead into chorus, then chorus

Ends with..(3.15)
-------------------------------------------------
-------------------------------------------------
-11-97--42-------------------------------------
-x--x-x--x-x-------------------------------------
-9--75--2-0-------------------------------------
-0--0-0------------------------------------------


Текст, аккорды и табулатура для песни "Divine Acoustic", исполняет "Hoobastank".
Используемые в песне аккорды можно найти в разделе Как брать аккорды. Аккорды для шестиструнной гитары. Другие песни можно найти на нашем сайте, воспользовавшись алфавитным указателем вверху страницы.


 
Ошибка в тексте? Выделите ошибку и нажмите Ctrl+Enter