Song: DIVINE
Artist: Hoobastank
Tuning: Standard  E A D G B E

Intro:
---2-------2----------------|
--3-------2--------3--------|
-------------------4------4-|
-4------4---------------5---|
2------2--------5-----5-----|
---------------3------3-----|

Verse 1:

	Excuse me my son		Do you believe 	  That you are without
---2--                ---2--                 ---------|
--3---                --2---                 ---3-----|
-------                -------                 --4----|
-4----                -4----                 ---------|
2-----                2-----                 -5-------|
-------                -------                 3------|

	Divine company		Come with me now
------                ---2------|
------                --3-------|
---4-                -----------|
--5--                -4---------|
-5---                2----------|
3----                   --------|

Chorus:

We want you to join todaaaaaaaaaay
---2--|	        G   A  D   F#   G
--2---|
------|
-4---
2----
------

I have no appetite for your control
	  A#        F	        A
Please go awaaaaaaaaaay
	    D   F#  G
And just leave me alone
	  A#	    F
I'll search on my own
       A#         F
Don't need a guide for my soul
A#           F        ---2-    ---2-    -----    ------|
                --3--    --2--    ---3-    ------------|
                -----    -----    --4--    ---4--------|
                -4---    -4---    -----    --5---------|
                2----    2----    -5---    -5----------|
                -----    -----    3----    3-----------|
Verse 2:

When you feel lost
Bm	       Bsus2
Loosing your hope
	      G
Reconsider

This antidote
	  Bm
Hold onto me
	   Bsus2
Chorus:

I'll show you the way now join todaaaaaaaaaay
		   G   A    G   A   D  F# G
I have no appetite for your control
	   A#       F            A#
Please go awaaaaaaaaaaay
	    D   F#    G
And just leave me alone
	  A#	    F
I'll search on my own
       A#          F
Don't need a guide for my soul
A#            F            D

Bridge:

Let me choose the path to take
F#		           G
'Cause it's my own choice to make
	    D		      F#
And I'll challenge this to you
			    G		D
But what if I told you, you were programmed to obey
	       F#		   G		 D
What if I told you I don't need you or your flock
	    F#			              G
Chorus:

I'll find my own waaaaaaaaaay
      A		  D    F#   G
I have no appetite for your control
	  A#	    F		 A
Please go awaaaaaaaaaaay
	    D    F#   G
And just leave me alone
	  A#	    F
I'll search on my own
       A#          F
Don't need a guide for my soul
A#	      F	            D

This is a great song, I hope you have fun playing it.
If you have questions or comments, email me [email protected]


Текст, аккорды и табулатура для песни "Divine", исполняет "Hoobastank".
Используемые в песне аккорды можно найти в разделе Как брать аккорды. Аккорды для шестиструнной гитары. Другие песни можно найти на нашем сайте, воспользовавшись алфавитным указателем вверху страницы.


 
Ошибка в тексте? Выделите ошибку и нажмите Ctrl+Enter