Title- Crawling In The Dark
Artist-Hoobastank
Album-Hoobastank

This song is relativly easy except for maybe the verse.
Regular tuning E A D G B E 

E-mail comments and stuff 2 [email protected]

Intro/Verse:          He use a delay effect on it.
Alternate Pick!!!!!! Play really quickly!!

E------------------------------------------------------------------
B------------------------------------------------------------------
G------------------------------------------------------------------
D-------11-12-11-----------------9---------------------------------
A--9-9-9--9--9--9-9-12-9-11----------------------------------------
E---------------------------12-12----------------------------------

Chorus/Second part of Intro:
Play the E chord down up down not just downstroke!
E------------------------------------------------------------------
B------------------------------------------------------------------
G---------------7--6------------------------------7-7-7-7--6-------
D------2-2-2-5--7--6--5--2 play-2-2-2-2--5-5-5-5--7-7-7-7--6-------
A------2-2-2-5--5--4--5--2twice-2-2-2-2--5-5-5-5--5-5-5-5--4-------
E------0-0-0-3--------3--0 then-0-0-0-0--3-3-3-3-------------------

Bridge thing:             Use wah or something like it
play each note as harmonic so just slide ur finger up and own the nec
k from the 1st fret to the 21st then back down to the 1st
E------------------------------------------------------------------
B------------------------------------------------------------------
G------------------------------------------------------------------
D------------------------------------------------------------------
A------------------------------------------------------------------
E----0-1-2-3-4-5-6-7-8-9-10-11-12-13-14-15-16-17-18-19-20-21/1-----
play 4 times i think then turn off wah and play this

E------------------------------------------------------------------
B------------------------------------------------------------------
G--------------------------7-7-7-7--6-6-6-6------------------------
D------2-2-2-2---5-5-5-5---7-7-7-7--6-6-6-6------------------------ 
A------2-2-2-2---5-5-5-5---5-5-5-5--4-4-4-4------------------------
E------0-0-0-0---3-3-3-3-------------------------------------------

That's it i don't have time 2 right the order


Текст, аккорды и табулатура для песни "Crawling In The Dark", исполняет "Hoobastank".
Используемые в песне аккорды можно найти в разделе Как брать аккорды. Аккорды для шестиструнной гитары. Другие песни можно найти на нашем сайте, воспользовавшись алфавитным указателем вверху страницы.


 
Ошибка в тексте? Выделите ошибку и нажмите Ctrl+Enter