SURFER GIRL - Homegrown

Tabbed by: Kevin ([email protected])

Tuned down half a step

INTRO
e|----------------------------2----------------------------------------------|
B|----3-----3-----3-----3-------3---3-----3-----3-----3----------------------|
G|------4-----4-----------4-------4---------4-----4---------3-----3-----3----|
D|------------------------------------------------------------4-----4--------|
A|--2-----2-----2-----0-----0------------------------------------------------|
E|--------------------------------------3-----3-----3-----2-----2-----2------|

SOLO 1
e|--/10-9-----------------/10-9----10-12-15-14-------------------------------|
B|--------10-8-7--7h8h10--------12-------------------------------------------|
G|---------------------------------------------------------------------------|
D|---------------------------------------------------------------------------|
A|---------------------------------------------------------------------------|
E|---------------------------------------------------------------------------|

VERSE
e|--2---------5----7----3----2-----------------------------------------------|
B|--3----7----5----8----3----2-----------------------------------------------|
G|--4----7----6----7----4----3-----------------------------------------------|
D|--4----7----7----9----5----4-----------------------------------------------|
A|--2----5----7----7----5----4-----------------------------------------------|
E|------------5---------3----2-----------------------------------------------|

SOLO 2
e|---------------------------------------------------------------------------|
B|----------------------------------------------------7-8-7------------------|
G|------6-7-9-7-6-7-6---------------9r-9p7----7-6---9------------------------|
D|--/9----------------7-7/9----------------9------9--------------------------|
A|---------------------------10-9--------------------------------------------|
E|---------------------------------------------------------------------------|

e|--12r-12p10-12------10-10-10-12--10h12p109--------------------------------|
B|----------------/12--------------------------------------------------------|
G|---------------------------------------------------------------------------|
D|---------------------------------------------------------------------------|
A|---------------------------------------------------------------------------|
E|---------------------------------------------------------------------------|

(VERSE)

SOLO 3
e|--14----------------14---14-15-12-14----12---------------------------------|
B|-----15----------15------------------15----14------------------------------|
G|--------16----16-----------------------------------------------------------|
D|-----------16--------------------------------------------------------------|
A|---------------------------------------------------------------------------|
E|---------------------------------------------------------------------------|

e|---------------------------------------------------------------------------|
B|--15-14--14h15p1412--10-8--8h10p87-----------7-8-7-----------------------|
G|---------------------------------------7-6---9-----------------------------|
D|-------------------------------------------9-------------------------------|
A|---------------------------------------------------------------------------|
E|---------------------------------------------------------------------------|

(VERSE)

PRE-CHORUS
e|--3-----------------3----------------3----------------3--------------------|
B|--3-----------------3----------------3----------------3--------------------|
G|--4-----------------4----------------4----------------4--------------------|
D|--5------4------4---5------4-----4---5------4-----4---5--7-7-7-7-7-7-7-7---|
A|--5------4------4---5------4-----4---5------4-----4---5--7-7-7-7-7-7-7-7---|
E|--3--2-2-2--2-2-2---3--2-2-2-2-2-2---3--2-2-2-2-2-2---3--5-5-5-5-5-5-5-5---|

CHORUS
e|---------------------------------------------------------------------------|
B|---------------------------------------------------------------------------|
G|--4-------7----------------------------------------------------------------|
D|--4---5---7---4------------------------------------------------------------|
A|--2---5---5---4------------------------------------------------------------|
E|------3-------2------------------------------------------------------------|

SOLO 4
e|---------------------------------------------------------------------------|
B|--------------------------------------------------7---7--------------------|
G|-----7--------------------------------7-9r-9p7----7---7--------------------|
D|--/9---7-7/9-----------------------/9----------9----9----------------------|
A|-----------------5-7b--5-7-7p5---------------------------------------------|
E|--------------/7---------------7-------------------------------------------|

e|-----7--10-7----7----------------------------------------------------------|
B|----7--------10---10-7-----------------------------------------------------|
G|---7-------------------9-7-9b-7--------------------------------------------|
D|--9-----------------------------9------------------------------------------|
A|---------------------------------------------------------------------------|
E|---------------------------------------------------------------------------|

(VERSE)

(PRE-CHORUS)

(CHORUS)

INTERLUDE
e|---------------------------------------------------------------------------|
B|---------------------------------------------------------------------------|
G|---------------------------------------------------------------------------|
D|--4--4--------5----------------4-4--------5--------------------------------|
A|--4--4--------5----------------4-4--------5--------------------------------|
E|--2--2-2-2-2--3-3-3-3-3-3-3-3--2-2-2-2-2--3-3-3-3-3-3-3-3------------------|

e|---------------------------------------------------------------------------|
B|---------------------------------------------------------------------------|
G|---------------------------------------------------------------------------|
D|--4--4--------5----------------4-4--------7-7-7-7-7-7-7-7---9--------------|
A|--4--4--------5----------------4-4--------7-7-7-7-7-7-7-7---9--------------|
E|--2--2-2-2-2--3-3-3-3-3-3-3-3--2-2-2-2-2--5-5-5-5-5-5-5-5---7--------------|

BRIDGE
e|--2----3----5----2----2----5-----------------------------------------------|
B|--3----3----5----2----3----3-----------------------------------------------|
G|--4----4----6----3----4----2-----------------------------------------------|
D|--4----5----7----4----4----4-----------------------------------------------|
A|--2----5----7----4----2----2-----------------------------------------------|
E|-------3----5----2---------------------------------------------------------|

e|---------------------------------------------------------------------------|
B|---------------------------------------------------------------------------|
G|---------------------------------------------------------------------------|
D|--5-5-5-5-5-5-5-5-5-5-5-5-5-5-5-5--7-7-7-7-7-7-7-7--4-4-4-4-4-4-4-4--------|
A|--5-5-5-5-5-5-5-5-5-5-5-5-5-5-5-5--7-7-7-7-7-7-7-7--4-4-4-4-4-4-4-4--------|
E|--3-3-3-3-3-3-3-3-3-3-3-3-3-3-3-3--5-5-5-5-5-5-5-5--2-2-2-2-2-2-2-2--------|

OUTRO
e|---------------------------------------------------------------------------|
B|---------------------------------------------------------------------------|
G|---------------------------------------------------------------------------|
D|-----4------4------4------4------4------4------4------4--------------------|
A|-2-2-2--2-2-2--2-2-2--2-2-2--2-2-2--2-2-2--2-2-2--2-2-2--------------------|
E|-----2------2------2------2------2------2------2------2--------------------|

Guitar 1:
e|---------------------------------------------------------------------------|
B|---------------------------------------------------------------------------|
G|---------------------------------------------------------------------------|
D|--5-5-5-5-5-5-5-5-5-5-5-5-5-5-5-5--7-7-7-7-7-7-7-7--4-4-4-4-4-4-4-4--------|
A|--5-5-5-5-5-5-5-5-5-5-5-5-5-5-5-5--7-7-7-7-7-7-7-7--4-4-4-4-4-4-4-4--------|
E|--3-3-3-3-3-3-3-3-3-3-3-3-3-3-3-3--5-5-5-5-5-5-5-5--2-2-2-2-2-2-2-2--------|

Guitar 2:
e|---------------------------------------------------------------------------|
B|---------------------------------------------------------------------------|
G|--7-7-7-7-7-7-7-7-7-7-7-7-7-7-7-7--6-6-6-6-6-6-6-6--3-3-3-3-3-3-3-3--------|
D|---------------------------------------------------------------------------|
A|--5-5-5-5-5-5-5-5-5-5-5-5-5-5-5-5--4-4-4-4-4-4-4-4--1-1-1-1-1-1-1-1--------|
E|---------------------------------------------------------------------------|

e|---------------------------------------------------------------------------|
B|---------------------------------------------------------------------------|
G|---------------------------------------------------------------------------|
D|-----4------4------4------4------4------4------4------4--------------------|
A|-2-2-2--2-2-2--2-2-2--2-2-2--2-2-2--2-2-2--2-2-2--2-2-2--------------------|
E|-----2------2------2------2------2------2------2------2--------------------|

Guitar 1:
e|---------------------------------------------------------------------------|
B|---------------------------------------------------------------------------|
G|---------------------------------------------------------------------------|
D|--5-5-5-5-5-5-5-5-5-5-5-5-5-5-5-5--7-7-7-7-7-7-7-7--4--4--4--4--4--4--4--4-|
A|--5-5-5-5-5-5-5-5-5-5-5-5-5-5-5-5--7-7-7-7-7-7-7-7--4--4--4--4--4--4--4--4-|
E|--3-3-3-3-3-3-3-3-3-3-3-3-3-3-3-3--5-5-5-5-5-5-5-5--2--2--2--2--2--2--2--2-|

Guitar 2
e|---------------------------------------------------------------------------|
B|---------------------------------------------------------------------------|
G|--7-7-7-7-7-7-7-7-7-7-7-7-7-7-7-7--6-6-6-6-6-6-6-6-11-11-11-11-11-11-11-11-|
D|---------------------------------------------------------------------------|
A|--5-5-5-5-5-5-5-5-5-5-5-5-5-5-5-5--4-4-4-4-4-4-4-4--9--9--9--9--9--9--9--9-|
E|---------------------------------------------------------------------------|

(PRE-CHORUS)

LAST CHORD
e|--7------------------------------------------------------------------------|
B|--7------------------------------------------------------------------------|
G|--7------------------------------------------------------------------------|
D|--9------------------------------------------------------------------------|
A|--9------------------------------------------------------------------------|
E|--7------------------------------------------------------------------------|


Текст, аккорды и табулатура для песни "Surfer Girl", исполняет "Homegrown".
Используемые в песне аккорды можно найти в разделе Как брать аккорды. Аккорды для шестиструнной гитары. Другие песни можно найти на нашем сайте, воспользовавшись алфавитным указателем вверху страницы.


 
Ошибка в тексте? Выделите ошибку и нажмите Ctrl+Enter