Title: Kiss Me Diss Me
Artist: Homegrown
Album: Kings of Pop
Author: Ryan Marsh

If you have questions or comments about this, email me at...

([email protected])

This is an awesome song thats pretty easy to play, plus there are no
homegrown tabs on this anywhere, so I thought it was my duty to mankind to do it.
This song has drop D tuning, so get to dropping!

-*m*- muted strum
-X- cut off the note
-~- let ring

(INTRO)

e---------------------------------|
b---------------------------------|
g-5-5-5-55-4-4-4------------------|
d-5-5-5-55-4-4-4------------------|
a-3-3-3-33-2-2-2-(scratch)--------|
D---------------------------------|


e---------------------------------|
b---------------------------------|
g---------------------------------|
d-1-1-5-6-6-9-10-10-5-6-6-8-------|
a-1-1-5-6-6-9-10-10-5-6-6-8-------|
D-1-1-5-6-6-9-10-10-5-6-6-8-------|x2


e---------------------------------|
b---------------------------------|
g-88-8-77-7-5---------------------|
d-88-8-77-7-5----4-4--------------|
a-66-6-55-5-3*m*-4-4--------------|
D----------------4-4--------------|


e---------------------------------|
b---------------------------------|
g---------------------------------|
d-1-1-5-6-6-9-10-10-5-6-6-8-------|
a-1-1-5-6-6-9-10-10-5-6-6-8-------|
D-1-1-5-6-6-9-10-10-5-6-6-8-------|


e---------------------------------|
b---------------------------------|
g-8888-8888-88~-------------------|
d-8888-8888-88~-------------------|
a-6666-6666-66~-------------------|
D---------------------------------|

And that's just the first 20 seconds!!!
The next part is palm muted with distortion up until the chorus.
I did this part like this because when i see tabs like this, I enjoy
them more than ones with no lyrics, so you can sing and whatnot.

(VERSE)

                  Eb
I don't wanna sit next to you
                          D
I cant believe you called me so soon
                    C               Bb
dont try to justify what you did to me
                         Eb
you're just one of those troubled girls
                  D
usin' me for everything but love
                      C               Bb
dont make excuses for what you did to me


(CHORUS)

you kissed me then dissed me but now you say you miss me...

e---------------------------------|
b---------------------------------|
g----------------33---------------|
d-66-6-88-8-11-1-33---------------|
a-66-6-88-8-11-1-11---------------|
D-66-6-88-8-11-1------------------|

And you used me, confused me but you don't wanna lose me, don't...

e---------------------------------|
b---------------------------------|
g---------------------------------|
d-66-6-88-8-1010-10-8-------------|
a-66-6-88-8-1010-10-8-------------|
D-66-6-88-8-1010-10-8-------------|

talk to me, don't acknowledge me anymore, i'm just another score.

e-------------------------------------|
b-------------------------------------|
g----------------33-------------------|
d-66-6-88-8-11-1-33-66-6-88-8-11111X--|
a-66-6-88-8-11-1-11-66-6-88-8-11111X--|
D-66-6-88-8-11-1----66-6-88-8-11111X--|

(Play INTRO part)

e---------------------------------|
b---------------------------------|
g---------------------------------|
d-1-1-5-6-6-9-10-10-5-6-6-8-------|
a-1-1-5-6-6-9-10-10-5-6-6-8-------|
D-1-1-5-6-6-9-10-10-5-6-6-8-------|

e---------------------------------|
b---------------------------------|
g---------------------------------|
d-1-1-5-6-6-9-10X-----------------|
a-1-1-5-6-6-9-10X-----------------|
D-1-1-5-6-6-9-10X-----------------|

Ok now repeat verse...

(VERSE 2)
                 Eb
I used to be all nice and sweet
                      D
Giving everything you want and need
                  C              Bb
I can't beleive I did it all for nothin'
                           Eb
But Now I'm bitter I can't take no more
                             D
Don't blame this on your bad childhood
                         C               Bb
Cuz that doesn't justify what you did to me


Then do chorus again...

(Solo)

e-------------------------------------------------|
b------8---8-----------8---8----------------------|
g-8-10---8---8-10-8-10---8---8-10-8-7-8-8-8-8-----|
d-------------------------------------8-8-8-8-----|
a-------------------------------------5-5-5-5-----|
D-------------------------------------------------| x4

Then mute the chorus, until the end of the 1st 2 lines then get heavy.

I will run away...

e---------------------------------|
b---------------------------------|
g---------------------------------|
d-66-6-88-8-11111-----------------|
a-66-6-88-8-11111-----------------|
D-66-6-88-8-11111-----------------|

(OUTRO)
Final Chorus

don't talk to me, don't acknowledge me anymore, i'm just another score.

e-------------------------------------|
b-------------------------------------|
g----------------33----------------8~-|
d-66-6-88-8-11-1-33-66-6-88-8-1111-8~-|
a-66-6-88-8-11-1-11-66-6-88-8-1111-6~-|
D-66-6-88-8-11-1----66-6-88-8-1111----|

Guitar 1 plays this diddy during the outro...

e-------------------------------------------------|
b--8---8--------8---8------8---8------------------|
g----8---8-10-8---8---10-8---8---10-8-10-8~~------|
d-------------------------------------------------|
a-------------------------------------------------|
D-------------------------------------------------|

That's all!!!!!!!!!!
Just remember who tabbed that song. Me baby, me!


Текст, аккорды и табулатура для песни "Kiss Me Diss Me", исполняет "Homegrown".
Используемые в песне аккорды можно найти в разделе Как брать аккорды. Аккорды для шестиструнной гитары. Другие песни можно найти на нашем сайте, воспользовавшись алфавитным указателем вверху страницы.


 
Ошибка в тексте? Выделите ошибку и нажмите Ctrl+Enter