Band: Homegrown
Song: You're Not Alone
Album: Kings of Pop
Tuning: Half Step (eb, Bb, Gb, Db, Ab, Eb)

Intro
e|-------------------0-----------------------------0------------------- 
B|------------0----4------5h7--4h5---------------0--------------------- 
G|----------1----------------------4-----------1----------------------- 
D|-----2----------------------------------2---------------------------- 
A|---2----0-------4---------------------2----0------------------------- 
E|-2--------------------0-------------2---------------0---------------- 

guitar 1 2x 
e|-0-0-0-0-0-0-0-0-0-0-0-0-0-0-0-0------------------------------------ 
B|-5-5-5-5-9-9-9-9-7-7-7-7-5-5-5-5------------------------------------| 
G|--------------------------------------------------------------------| 
D|--------------------------------------------------------------------| 
A|--------------------------------------------------------------------| 
E|--------------------------------------------------------------------| 

guitar 2 (comes in after one time on guitar 1) 
e|-0-0-0-0--0--0--0--0--0--0--0--0-0-0-0-0----------------------------| 
B|-9-9-9-9-12-12-12-12-10-10-10-10-9-9-9-9----------------------------| 
G|--------------------------------------------------------------------| 
D|--------------------------------------------------------------------| 
A|--------------------------------------------------------------------| 
E|--------------------------------------------------------------------| 

INTRO (STRUMMING NOT SHOWN) 
e|--------------------------------------------------------------------| 
B|--------------------------------------------------------------------| 
G|---13-11-9------13-11-9---6--13-11-9-----13-14-11-----13-11-9-------| 
D|-4--x--x-x---7---x--x-x---6---x--x-x--2---x--x--x--4---x--x-x-------| 
A|-4-11--9-7---7--11--9-7---4--11--9-7--2--11-12--9--4--11--9-7-------| 
E|-2-----------5------------------------0------------2----------------| 
pm - - - - - 

(intro cont.) 
e|--------------------------------------------------------------------| 
B|--------------------------------------------------------------------| 
G|----13-11-9---------------------------------------------------------| 
D|-7---x--x-x---4-----------------------------------------------------| 
A|-7--11--9-7---4-let ring out----------------------------------------| 
E|-5------------2-----------------------------------------------------| 
- 

VERSE 2x 
e|----4----4----4----4----4----4----4----4----------------------------| 
B|--------------------------------------------5----5----5/45----5----| 
G|--------------------------------------------------------------------| 
D|-6-6--6-6--6-6--6-6--6-6--6-6--6-6--6-6-----------------------------| 
A|-----------------------------------------7-7--7-7--7-7------7-7-----| 
E|--------------------------------------------------------------------| 

guitar 1 (verse cont.) 
e|-4---------4---------4---------4-5-4-----4---------4--------4-------| 
B|--5-5-5-5---5-5-5-5---5-5-5-5-------5-5---5-5-5-5---5-5-5-5--5-5-5-5| 
G|--------------------------------------------------------------------| 
D|--------------------------------------------------------------------| 
A|--------------------------------------------------------------------| 
E|--------------------------------------------------------------------| 

guitar 2 (verse cont.) 
e|--------------------------------------------------------------------| 
B|--------------------------------------------------------------------| 
G|-5-5-5-5-5-5-5-5-5-5-5-5-5-5-5-5-5-5-5-5----------------------------| 
D|-x-x-x-x-x-x-x-x-x-x-x-x-x-x-x-x-x-x-x-x----------------------------| 
A|-7-7-7-7-7-7-7-7-7-7-7-7-7-7-7-7-7-7-7-7----------------------------| 
E|--------------------------------------------------------------------| 

CHORUS 2x 
e|--------------------------------------------------------------------| 
B|--------------------------------------------------------------------| 
G|---------------------------------6-6-6-6-6-6-6-6--------------------| 
D|-4-4-4-4-4-4-4-4-7-7-7-7-7-7-7-7-6-6-6-6-6-6-6-6-2-2-2-2-2-2-2-2----| 
A|-4-4-4-4-4-4-4-4-7-7-7-7-7-7-7-7-4-4-4-4-4-4-4-4-2-2-2-2-2-2-2-2----| 
E|-2-2-2-2-2-2-2-2-5-5-5-5-5-5-5-5-----------------0-0-0-0-0-0-0-0----| 

ON THE INTRO AFTER THE FIRST CHORUS GUTAR 2 PLAYS (strumming not shown) 
e|--------------------------------------------------------------------| 
B|--------------------------------------------------------------------| 
G|----9-8-6-----9-8-6--6--9-8-6----9-11-6-----------------------------| 
D|-4--x-x-x--7--x-x-x--6--x-x-x--2-x--x-x-----------------------------| 
A|-4--7-6-4--7--7-6-4--4--7-6-4--2-7--9-4-----------------------------| 
E|-2---------5-------------------0------------------------------------| 
pm - - - - 

(ON CHORUS BEFORE BRIDGE END ON 5-7-7 instead of 0-2-2) 

BRIDGE guitar 4x 
e|--------------------------------------------------------------------| 
B|--------------------------------------------------------------------| 
G|-----------------4-4-4-4-4-4-4-4------------------------------------| 
D|-2-2-2-2-2-2-2-2-4-4-4-4-4-4-4-4-7-7-7-7-7-7-7-7-7-7-7-7-7-7-7-7----| 
A|-2-2-2-2-2-2-2-2-2-2-2-2-2-2-2-2-7-7-7-7-7-7-7-7-7-7-7-7-7-7-7-7----| 
E|-0-0-0-0-0-0-0-0-----------------5-5-5-5-5-5-5-5-5-5-5-5-5-5-5-5----| 

guitar 2 comes in after first time played 
e|----------------------------{4---------4--------4--------4-------}--| 
B|----------------------------{--5-5-5-5--5-5-5-5--5-5-5-5--5-5-5-5}--| 
G|-4-4-4-4--8-8-8-8--9-9-9-9-----------in italics play like 16 times--| 
D|-x-x-x-x--x-x-x-x--x-x-x-x------------------------------------------| 
A|-2-2-2-2--6-6-6-6--7-7-7-7------------------------------------------| 
E|--------------------------------------------------------------------| 

guitar 2 on 3rd chorus 4x 
e|--------------------------------------------------------------------| 
B|--------------------------------------------------------------------| 
G|-9-9-9-9--13-13-13-13-11-11-11-11--9-9-9-9--------------------------| 
D|-x-x-x-x---x--x--x--x--x--x--x--x--x-x-x-x--------------------------| 
A|-7-7-7-7--11-11-11-11--9--9--9--9--7-7-7-7--------------------------| 
E|--------------------------------------------------------------------| 

HERE IS THE SONG ORDER- IF YOU CAN UNDERSTAND THIS THEN 
TECHNO INTRO GOOD JOB 
TECHNO INTRO 2 
INTRO 
VERSE 
CHORUS 
INTRO 
VERSE 
CHORUS  
TECHNO INTRO 2 (LITERALLY) 
BRIDGE 
INTRO/CHORUS 
CHORUS


Текст, аккорды и табулатура для песни "Youre Not Alone", исполняет "Home Grown".
Используемые в песне аккорды можно найти в разделе Как брать аккорды. Аккорды для шестиструнной гитары. Другие песни можно найти на нашем сайте, воспользовавшись алфавитным указателем вверху страницы.


 
Ошибка в тексте? Выделите ошибку и нажмите Ctrl+Enter