-------------------------------------------------------------------------------
			     Youre Not Alone - Homegrown
-------------------------------------------------------------------------------

Tabbed by:Chase

Email:[email protected]

Tuning:Standard

  Intro
e|---------------------------------------------------------------------------|
B|---------------------------------------------------------------------------|
G|----------------------7----6/7-9-6-7-6----------------7--------------------|
D|------5--------7----7----------------------5--------7----------------------|
A|----5-----4/5-----0----------------------5-----4/5-------------------------|
E|--0-----0---------------0--------------0-----0-----------------------------|
  Guitar one
e|---------------------------------------------------------------------------|
B|---------------------------------------------------------------------------|
G|--6666999977776666---------------------------------------------------------|
D|--7777777777777777---------------------------------------------------------|
A|---------------------------------------------------------------------------|
E|---------------------------------------------------------------------------|
  Guitar two once after guitar one
e|---------------------------------------------------------------------------|
B|---------------------------------------------------------------------------|
G|--88881111111199998888-----------------------------------------------------|
D|--99999-9-9-9-99999999-----------------------------------------------------|
A|---------------------------------------------------------------------------|
E|---------------------------------------------------------------------------|
  Bridge                                            1st time only
e|-------------------------------------------|---------------------------------
B|-------------------------------------------|---------------------------------
G|-----8888-6666-4444-----8888-6666-4444-----|8888-6666-4444-----8888-9999-6666
D|-xx2-xxxx-xxxx-xxxx-xx4-xxxx-xxxx-xxxx-xx6-|xxxx-xxxx-xxxx-xx6-xxxx-xxxx-xxxx
A|-xx2-6666-4444-2222-xx4-6666-4444-2222-xx6-|6666-4444-2222-xx6-6666-7777-4444
E|-xx0----------------xx2----------------xx4-|---------------xx4---------------

  Verse
e|---------------------------------------------------------------------------|
B|---------------------------------------------------------------------------|
G|----8------8---------------------------------------------------------------|
D|--7---X5-7---7-9-X5--------------------------------------------------------|
A|---------------------------------------------------------------------------|
E|---------------------------------------------------------------------------|
  Chorus	
e|---------------------------------------------------------------------------|
B|---------------------------------------------------------------------------|
G|---------------------------------------------------------------------------|
D|-2-----4-----6-----0-------------------------------------------------------|
A|-2-----4-----6-----0-------------------------------------------------------|
E|-0-X16-2-X16-4-X16-0-X16---------------------------------------------------|

Thats pretty much it, this tab is far from perfect but i was jammin today to this
song and thought that it sounded pretty close...enjoy!


| /  slide up
|   slide down
| h  hammer-on
| p  pull-off
| ~  vibrato
| +  harmonic
| x  Mute note

===============================================================================


Текст, аккорды и табулатура для песни "Youre Not Alone", исполняет "Home Grown".
Используемые в песне аккорды можно найти в разделе Как брать аккорды. Аккорды для шестиструнной гитары. Другие песни можно найти на нашем сайте, воспользовавшись алфавитным указателем вверху страницы.


 
Ошибка в тексте? Выделите ошибку и нажмите Ctrl+Enter