http://www.homegrownonline.com/

DROP D

intro= the 2 notes with stars means i dont know what it is, but the 3 works

use light distortion or clean

------------------------------------------------------------------------------|
------------------------3-4------4-6-3-4--------------------------------------|
---------------------------------------------3------------------------------8-|
------5-6-----5-8-----------------------------------------5-6------5-8--------|
-*3--------3-------3-------------------------------*3---------3---------------|
-------------------------------1----------------------------------------------|
then

5th string= --4444--8888-6666--4444--8888--1111--9999-8888

distortion=

---------------------------------------------------------------------|
---------------------------------------------------------------------|
----------12-12-12-----------12-12-12------------------12-12-12------|
----------X---X--X-------------X---X---X-------------------X---X---X-|
-3-3-3--10-10-10--6-6-6---10-10-10----10-10-10--10-10-10-------------|
-3-3-3----------------6-6-6------------------10-10-10----------------|

-------------------------------------------------|
-------------------------------------------------|
----------12-12-12--13-13-13--10-10-10-----------|
----------X---X---X---X---X---X---X---X---X------|
-3-3-3--10-10-10--11-11-11--8---8---8------------|
-3-3-3-------------------------------------------|

the little soft part im not sure about but this sounds close enough

--------3----3-----3--------|
--444----4-----4----6-------|
----------------------------|
----------------------------|
----------------------------|
----------------------------|

thats about it


Текст, аккорды и табулатура для песни "Youre Not Alone", исполняет "Home Grown".
Используемые в песне аккорды можно найти в разделе Как брать аккорды. Аккорды для шестиструнной гитары. Другие песни можно найти на нашем сайте, воспользовавшись алфавитным указателем вверху страницы.


 
Ошибка в тексте? Выделите ошибку и нажмите Ctrl+Enter