-------------------------------------------------------------------------------
			     Give It UP - Home Grown
-------------------------------------------------------------------------------

Tabbed by: Brian
Email: [email protected]

Tuning: Eb (Eb,Ab,Db,Gb,Bb,Eb)     (Figure out Strumming Pattern)

Intro

Guitar 1
e|---------------------| X2
B|---------------------|
G|--2------------------|
D|--2----2---4---2-----|
A|--0----2---4---2-----|
E|-------0---2---0-----|
                                    (First Ending)        (Second Ending)
Guitar 2
e|-5-5-5---------4-4-4----------------7-7-7-4-4-4------------------|  X2
B|--------0-0-0---------0-0-0----X2--------------------------4bp0--| 
G|-----------------------------------------------------------------|
D|-----------------------------------------------------------------|
A|-----------------------------------------------------------------|
E|-----------------------------------------------------------------|


Verse
Guitar 1 
e|-----0--------------|
B|-----0--------------|
G|-----2--let-ring----|
D|-2---2--------------|
A|-2---0--------------|
E|-0------------------|
pm .


Chorus (Same as Guitar 1 Intro)

Intro

Verse

Chorus


Breakdown

Guitar 1 and Guitar 2
e|------------------------|
B|------------------------|
G|------------------------|
D|------------------------|
A|--7----------7----------|
E|--4---2--4---5----------|
pm  .   .  .   .


Breakdown Cont.

e|-------------------------| X10
B|-------------------------|
G|--2-------4-----------4--|
D|--2---2---4---2---6---4--|
A|--0---2---2---2---6---2--|
E|------0-------0---4------|


Bridge

e|--0--------------9------------|
B|--0--------------10----10-----|
G|--2--------------9-----9------|
D|--2--Let-Ring-----------------|
A|--0---------------------------|
E|------------------------------|

Bridge Cont.

e|-0-0-0-0-0-0-0-0-0-0-0-0-0-0-0-0-0-0-0-0-0-0-0-0-0-0-0-0-0-0-0-0-|
B|-2-2-2-2-2-2-2-2-2-2-2-2-2-2-2-2-5-5-5-5-5-5-5-5-5-5-5-5-5-5-5-5-|
G|-----------------------------------------------------------------|
D|-----------------------------------------------------------------|
A|-----------------------------------------------------------------|
E|-----------------------------------------------------------------|

e|--0--0--0--0--0--0--0--0--0--0--0--0--0--0--0--0-----------------|
B|-10-10-10-10-10-10-10-10-10-10-10-10-10-10-10-10-----------------|
G|-----------------------------------------------------------------|
D|-----------------------------------------------------------------|
A|-----------------------------------------------------------------|
E|-----------------------------------------------------------------|

e|--0--0--0--0--0--0--0--0--0---0---0---0---0---0---0---0----------|
B|-17-17-17-17-17-17-17-17-17^-17^-17^-17^-17^-17^-17^-17^---------|
G|-----------------------------------------------------------------|
D|-----------------------------------------------------------------|
A|-----------------------------------------------------------------|
E|-----------------------------------------------------------------|
                          (These (^) are bends)
   

Intro


Ending

Guitar 1
e|-----------------| X2
B|-----------------|
G|-----------------|
D|--6---4--6--7----|
A|--6---4--6--7----|
E|--4---2--4--5----|


Guitar 2
e|--------------------7-----------------------7--9x---------------|
B|-9^--9-------9^--9-------9^--9-------9^--9----------------------|
G|--------9-----------------------9-------------------------------|
D|----------------------------------------------------------------|
A|----------------------------------------------------------------|
E|----------------------------------------------------------------|


That's It. E-mail me if you want a song tabbed out ([email protected])


Текст, аккорды и табулатура для песни "Give It Up", исполняет "Home Grown".
Используемые в песне аккорды можно найти в разделе Как брать аккорды. Аккорды для шестиструнной гитары. Другие песни можно найти на нашем сайте, воспользовавшись алфавитным указателем вверху страницы.


 
Ошибка в тексте? Выделите ошибку и нажмите Ctrl+Enter