BTAB: Celebrity Skin
Artist: Hole
Album: Celebrity Skin
Author: Anthony Koop 
There was one major error on Alexandre Lima's  tab worth correcting (The Chorus)
(The other tab, made by Rattman ([email protected]),
was a little simple. Here's one more accurate tab.)

Verse 1:
G:|-r-|----------|-----------------|--------------------|
D:|-e-|----------|-----------------|--------------------|
A:|-s-|----44----|----44-----------|----44-44/9-999-7-3-|
E:|-t-|-55----22-|-55----22-020202-|-55-----------------|

Chorus:
G:|-------------------|------|-------------------|--------------------|
D:|-------------------|--O/--|-------------------|--------------------|
A:|-5-5-55------------|--/O--|---------2-22-22-2-|-5-45-45-45-45-45-5-|
E:|---------5-55-55-5-|------|-2-2-22------------|--------------------|

Verse 2:
G:|----------|-----------------|------------------|-------------------|
D:|----------|-----------------|------------------|-------------------|
A:|----44----|----44-----------|----44------------|---44-44/9-999-7-3-|
E:|-55----22-|-55----22-020202-|-55----22-00077-5-|-55----------------|

Chorus

Bridge:
G:||-----------|------|------|---------|
D:||*----------|--O/--|--O/--|---------|
A:||*-----5555-|--/O--|--/O--|----2-02-|
E:||--5555-----|------|------|-222-----|  x4

Verse

Chorus

Bridge

Verse 4:
G:|----------|-----------------|-------------------|----------|
D:|----------|-----------------|-------------------|----------|
A:|----44----|----44-----------|----44-------------|----44----|
E:|-55----22-|-55----22-020202-|-55----22-22/7-775-|-55----22-|


Текст, аккорды и табулатура для песни "Celebrity Skin", исполняет "Hole".
Используемые в песне аккорды можно найти в разделе Как брать аккорды. Аккорды для шестиструнной гитары. Другие песни можно найти на нашем сайте, воспользовавшись алфавитным указателем вверху страницы.


Слушать онлайн Celebrity Skin


HoleCelebrity Skin на Яндекс.Музыке


 
Ошибка в тексте? Выделите ошибку и нажмите Ctrl+Enter