Artist: Hoax
Track: Prisonor of War
Standard tuning. Tabbed by Flexos C.
P.M-Palm mute

Intro:

Riff A:

A     E     D     G - Play twice through

Riff A-B link:

G5     A5     B5

Riff B:

C#5     D#5   C#5    B5- x2


That's th intro:

Verse One:

Carry on straight from end of intro:

C#5                 D#5
I'm sleeping in the dirt tonight,
C#5                B5
And I'm hurting all over now...

Let last B5 ring:

-Chorus-

A5     P.M-| E5   P.M-| D5   G5
Because      I'm a      prisonor,
A5    P.M--| E5    P.M-| D5   G5
not to       myself       anymore,
A5     P.M--| E5      P.M--|  D5     G5
they co  --  ver me in        my own blood,
A5       P.M--| E5      P.M--| D5     G5
this time       is worse       than before.


Verse Two: Same as verse one with different lyrics.

Chorus: Same as first chorus.

Play Riff A-B link to solo:

Solo:

First play Riff B (x2) then:

e|--------------|--------------|--------------|--------------|
b|--------------|--------------|--------------|--------------|
g|--------------|--------------|--------------|--------------|
d|--------------|--------------|--9--7--9--7--|--------------|
a|--------------|--9--7--9--7--|--------------|--9--7--9--7--|
e|--9--7--9--7--|--------------|--------------|--------------|

e|--------------|--------------|--------------|--------------|
b|--------------|--------------|--------------|--------------|
g|--------------|--------------|--------------|--------------|
d|--------------|--------------|--9--7--9--7--|--------------|
a|--------------|--9--7--9--7--|--------------|--9--7--9--7--|
e|--9--7--9--7--|--------------|--------------|--------------|


Verse Three:

C#5     B5        C#5      E5
Now I'm caught in the crossfire,
C#5     B5         C#5
And theres enemies about.
C#5     B5        C#5      E5
Now I'm caught in the crossfire.
C#5     B5        C#5
And theres no way out.

Back to chorus.

Outro:

Riff A-B link, then play riff B twice. Let the final B5 ring.

Lyrics:

I'm sleeping in the dirt tonight and I'm hurting all over now,
blood smeared all over my shirt, and I know that I'm going down.
As I'm pushed, I know I'm dead soon, I'll never be set free.
Theyre going down and taking me with them, as the red is all I see.

Because I'm a prisonor,
not to myself anymore,
they cover me in my own blood,
this time is worse than before.

My bones feel crushed, just like my hopes, as the interrogations begin.
The sweat's dripping off my face, but I won't tell them anything.
The signs all point to me they say, they think I hold information.
I gotta tell them I'm innocent, for the sake of me and their nation.

Because I'm a prisonor...

Now I'm caught in the crossfire,
and there are enemies about.
Now I'm caught in the crossfire,
and theres no way out.

Because I'm a prisonor,
not to myself anymore,
they cover me in my own blood,
this time is worse than before.
This time is worse than before.
This time is worse than before.

any comments or questions? email at [email protected]


Текст, аккорды и табулатура для песни "Prisonor Of War", исполняет "Hoax".
Используемые в песне аккорды можно найти в разделе Как брать аккорды. Аккорды для шестиструнной гитары. Другие песни можно найти на нашем сайте, воспользовавшись алфавитным указателем вверху страницы.


 
Ошибка в тексте? Выделите ошибку и нажмите Ctrl+Enter