Email:[email protected]

Tuning:standard
intro/prechorus
e|---------------------------------------------------------------------------|
B|-9-9--7--14-14--12--14-15--------------------------------------------------|
G|-9-9--7--14-14--12--14-14--------------------------------------------------|
D|-9-9--7--14-14--12--14-14--------------------------------------------------|
A|-7-7--5--12-12--10--12-12--------------------------------------------------|
E|---------------------------------------------------------------------------|
verse
e|---------------------------------------------------------------------------|
B|-5-5-5-5-5-5-5-5-5-5-5-----------------------------------------------------|
G|-7-7-7-6-6-6-6-5-5-5-4-----------------------------------------------------|
D|---------------------------------------------------------------------------|
A|---------------------------------------------------------------------------|
E|---------------------------------------------------------------------------|
Chorus
e|---------------------------------------------------------------------------|
B|---------------------------------------------------------------------------|
G|---------------------------------------------------------------------------|
D|-5-------4---------5------4-5-4-5-4-5-4-5----------------------------------|
A|-5(x8)---4(x8)-----5(x8)--4-5-4-5-4-5-4-5----------------------------------|
E|-3-------2---------3------2-3-2-3-2-3-2-3----------------------------------|

i think thats it. if you have any corrections either email me or put them on the comment page.          
Enjoy


Текст, аккорды и табулатура для песни "Walk Idiot Walk", исполняет "Hives".
Используемые в песне аккорды можно найти в разделе Как брать аккорды. Аккорды для шестиструнной гитары. Другие песни можно найти на нашем сайте, воспользовавшись алфавитным указателем вверху страницы.


 
Ошибка в тексте? Выделите ошибку и нажмите Ctrl+Enter