Oh lord when how
by The hives

e-|---|
B-|---|
G-|---|
D-|-2-|
A-|-2-|
E-|-0-|

VERSE

e-|-----------------|
B-|-----------------|
G-|-------7-7---7---|
D-|-7-7-7-7-7-7-7-7-|
A-|-7-7-7-5-5-7-5-7-|
E-|-5-5-5-----5---5-|

END OF VERSE

e-|-------------|
B-|-------------|
G-|-10-7-10-5-7-|
D-|-10-7-10-5-7-|
A-|--8-5--8-3-5-|
E-|-------------|

CHORUS

e-|-----------|    |-------| |-------------|
B-|-----------|    |-------| |-------------|
G-|-7---5-----| x3 |-7-5-9-| |-10-7-10-5-7-|
D-|-7-3-5-5-7-|    |-7-5-9-| |-10-7-10-5-7-|
A-|-5-3-3-5-7-|    |-5-3-7-| |--8-5--8-3-5-|
E-|---1---3-5-|    |-------| |-------------|


e-|---|
B-|---|
G-|---|
D-|-7-|
A-|-7-|
E-|-5-|


Текст, аккорды и табулатура для песни "Oh Lord When How", исполняет "Hives".
Используемые в песне аккорды можно найти в разделе Как брать аккорды. Аккорды для шестиструнной гитары. Другие песни можно найти на нашем сайте, воспользовавшись алфавитным указателем вверху страницы.


 
Ошибка в тексте? Выделите ошибку и нажмите Ctrl+Enter