Standard Tuning

Good song, quality riff.  This is a play it as you see it tab, it's
all laid out in order of play.
Please rate this tab and leave comments and suggestions, cheers.

r = let note ring
/ = slide up
 = slide down

Intro

G|-------------------------------------------------------|
D|-----------3-5-----------3-----------3-5-------3-----5-|
A|-0-3-4-5---------0-1---1---0-3-4-5---------0-1---1/3---| 
E|-------------------------------------------------------|

G|-----------------------------------------------------|
D|---------3-5-----------3-----------3-5-------3-----5-|
A|-3-4-5---------0-1---1—--0-3-4-5---------0-1---1/3---|
E|-----------------------------------------------------|

End of Intro

G|---------------------------------------------------------|
D|---------3---3---------3---3---------3---3---------3---3-|
A|-0-3-4-5---5---5-3-4-5---5---0-3-4-5---5---5-3-4-5---5---|
E|---------------------------------------------------------|

Verse

G|-------------------------------------------------------|
D|-----------3-5-----------3-----------3-5-------3-----5-|
A|-0-3-4-5---------0-1---1---0-3-4-5---------0-1---1/3---| 
E|-------------------------------------------------------|

G|-----------------------------------------------------|
D|---------3-5-----------3-----------3-5-------3-----5-|
A|-3-4-5---------0-1---1—--0-3-4-5---------0-1---1/3---|
E|-----------------------------------------------------|

G|-----------------------------------------------------|
D|---------3-5-----------3-----------3-5-------3-----5-|
A|-3-4-5---------0-1---1---0-3-4-5---------0-1---1/3---| 
E|-----------------------------------------------------|

G|-----------------------------------------------------|
D|---------3-5-----------3-----------3-5-------3-----5-|
A|-3-4-5---------0-1---1—--0-3-4-5---------0-1---1/3---|
E|-----------------------------------------------------|

Bridge

G|-------------------------------|
D|-------------------------------|
A|-3-4-5r----------0-0-0-0-0-0-0-|
E|-------------------------------|

Chorus

G|-----------------------------------------------------------------|
D|---------------------------------3-3-3-3-3-3-3-3-5-5-5-5-5-3-5-7-|
A|-0-0-0-0-0-0-0-0-5-5-5-5-5-5-5-5---------------------------------|
E|-----------------------------------------------------------------|

G|-----------------------------------------------------------------|
D|---------------------------------3r--------------3---------------|
A|-0-0-0-0-0-0-0-0-5-5-5-5-5-5-5-3---------------------------------|
E|-----------------------------------------------------------------|

Verse

G|-------------------------------------------------------|
D|-----------3-5-----------3-----------3-5-------3-----5-|
A|-0-3-4-5---------0-1---1---0-3-4-5---------0-1---1/3---| 
E|-------------------------------------------------------|

G|-----------------------------------------------------|
D|---------3-5-----------3-----------3-5-------3-----5-|
A|-3-4-5---------0-1---1—--0-3-4-5---------0-1---1/3---|
E|-----------------------------------------------------|

G|-----------------------------------------------------|
D|---------3-5-----------3-----------3-5-------3-----5-|
A|-3-4-5---------0-1---1---0-3-4-5---------0-1---1/3---| 
E|-----------------------------------------------------|

G|-----------------------------------------------------|
D|---------3-5-----------3-----------3-5-------3-----5-|
A|-3-4-5---------0-1---1—--0-3-4-5---------0-1---1/3---|
E|-----------------------------------------------------|

rest

G|-------------------------------------------------------|
D|-----------3-5-----------3-----------3-5-------3-----5-|
A|-0-3-4-5---------0-1---1---0-3-4-5---------0-1---1/3---| 
E|-------------------------------------------------------|

G|-----------------------------------------------------|
D|---------3-5-----------3-----------3-5-------3-----5-|
A|-3-4-5---------0-1---1—--0-3-4-5---------0-1---1/3---|
E|-----------------------------------------------------|

G|-----------------------------------------------------|
D|---------3-5-----------3-----------3-5-------3-----5-|
A|-3-4-5---------0-1---1---0-3-4-5---------0-1---1/3---| 
E|-----------------------------------------------------|

G|-----------------------------------------------------|
D|---------3-5-----------3-----------3-5-------3-----5-|
A|-3-4-5---------0-1---1—--0-3-4-5---------0-1---1/3---|
E|-----------------------------------------------------|

Bridge

G|-------------------------------|
D|-------------------------------|
A|-3-4-5r----------0-0-0-0-0-0-0-|
E|-------------------------------|

Chorus

G|-----------------------------------------------------------------|
D|---------------------------------3-3-3-3-3-3-3-3-5-5-5-5-5-3-5-7-|
A|-0-0-0-0-0-0-0-0-5-5-5-5-5-5-5-5---------------------------------|
E|-----------------------------------------------------------------|

G|-----------------------------------------------------------------|
D|---------------------------------3r--------------3---------------|
A|-0-0-0-0-0-0-0-0-5-5-5-5-5-5-5-3---------------------------------|
E|-----------------------------------------------------------------|

Verse

G|-------------------------------------------------------|
D|-----------3-5-----------3-----------3-5-------3-----5-|
A|-0-3-4-5---------0-1---1---0-3-4-5---------0-1---1/3---| 
E|-------------------------------------------------------|

G|-----------------------------------------------------|
D|---------3-5-----------3-----------3-5-------3-----5-|
A|-3-4-5---------0-1---1—--0-3-4-5---------0-1---1/3---|
E|-----------------------------------------------------|

G|-----------------------------------------|
D|-----------------------------------------|
A|-3-4-5r-5r-5r-5r-5r---------------------|
E|-----------------------------------------|


Текст, аккорды и табулатура для песни "Main Offender", исполняет "Hives".
Используемые в песне аккорды можно найти в разделе Как брать аккорды. Аккорды для шестиструнной гитары. Другие песни можно найти на нашем сайте, воспользовавшись алфавитным указателем вверху страницы.


 
Ошибка в тексте? Выделите ошибку и нажмите Ctrl+Enter