Intro
G---------------------
D---------------------
A---------------------
E-10~---------00000000


Verse
G-----------------------------------------------
D-----------------------------------------------
A--------------------8-8-8-0--------------------
E-10-10-10-0-8-8-8-0---------6-6-6-0------------

Solo
G-----------------------------------------------
D-----------------------------------------------
A--------------------8-8-8-0--------------------
E-10-10-10-0-8-8-8-0---------6-6-6-6-8-----------

Daniel Anderson
[email protected]


Текст, аккорды и табулатура для песни "Hate To Say I Told You So", исполняет "Hives".
Используемые в песне аккорды можно найти в разделе Как брать аккорды. Аккорды для шестиструнной гитары. Другие песни можно найти на нашем сайте, воспользовавшись алфавитным указателем вверху страницы.


 
Ошибка в тексте? Выделите ошибку и нажмите Ctrl+Enter