Song:GOTTA PULL MYSELF TOGETHER
Band:HI STANDARD
Album:
tabbed by:JASON
INTRO

G]------------------------------------------------------]
D]--------9-9-7-5-----------7-7-5-------------------] 
A]-5-5-9----------9-5--5-9---------9-7-5-----------]    
E]------------------------------------------------------]

VERSE
G]-------------]      [-------]
D]-------------]      [-------]
A]-5>-2>-7>-] x2  [-------]        x2
E]----------5>-]     [-3>-5>-]

CHORUS(same as verse)

VERSE

INTRO

BRIDGE
G]-----------------------]       [-------]
D]-----------------------]       [-------]
A]-7--7-6-4-4-------2>]  x2 [-------]     x2
E]------------4-3-2-2---]      [-5>-7>-]

NEW CHORUS
G]-------------]
D]-------------]
A]-7>-4>-9>----]    x2
E]-------------7>-]

BRIDGE

OUTRO
G]---------------------------------------]
D]---------11-11-9-7-------------9-7--------]
A]-7-7-11------------11-9-9-11-------11-9-7-]
E]---------------------------------------]





Текст, аккорды и табулатура для песни "Gotta Pull Myself Together", исполняет "Hi-standard".
Используемые в песне аккорды можно найти в разделе Как брать аккорды. Аккорды для шестиструнной гитары. Другие песни можно найти на нашем сайте, воспользовавшись алфавитным указателем вверху страницы.


 
Ошибка в тексте? Выделите ошибку и нажмите Ctrl+Enter