Intro:
    Am           C           F             G

1 ---------0------------0------------1------------3----
2 -----1-----2------1------------1-----1------0-----0--
3 ---2------------2-----------2-------------0----------
4 -----------------------------------------------------
5 -0------------3--------------------------------------
6 --------------------------1-------------3------------

1 ---------0------------0------------1----------3------
2 -----1-----2------1-----2------1-----1------0---0----
3 ---2------------2-----------2-------------0-------0--
4 -----------------------------------------------------
5 -0------------3--------------------------------------
6 --------------------------1-------------3------------

Куплет 1:
    Am      G       C       G        F       G       C      G
1 -------0-------3-------0-------3-------1-------3-------0-------3-
2 -----1-------0-------1-------0-------1-------0-------1-------0---
3 ---2-------0-------2-------0-------2-------0-------2-------0-----
4 -----------------------------------------------------------------
5 -0---------------3-------------------------------3---------------
6 ---------3---------------3-------1-------3---------------3-------

 Am      G     C     G
 На закате дня остывает лето
 F        G         C   G
 Расплескались брызги света
 Мы переживем мы с тобой еще споем
 Надо только выбрать день

Припев:

    F           G            G          Am
1 ---------1-----------3-----------3-----------0---
2 -----1-----1-----0-----0-----0-----0-----1-----1-
3 ---2-----------0-----------0-----------2---------
4 -------------------------------------------------
5 -------------------------------------0-----------
6 -1-----------3-----------3-----------------------

      F        G
Я люблю (Ты полюбишь)
 G           Am
Каждый летний час 
Я ловлю (Я ищу тебя)
Падающий снег
Я допью (Наше лето)
Летние дожди
Я люблю (Я тебя люблю)
Значит я живу

Проигрыш (Intro).

Куплет 2:
Слезы не для нас нет не надо плакать
Завтра добрым утро
Мама ты права я могу счастливым стать
Надо только выбрать день

Припев.


Текст, аккорды и табулатура для песни "Я люблю", исполняет "Hi-Fi".
Используемые в песне аккорды можно найти в разделе Как брать аккорды. Аккорды для шестиструнной гитары. Другие песни можно найти на нашем сайте, воспользовавшись алфавитным указателем вверху страницы.


 
Ошибка в тексте? Выделите ошибку и нажмите Ctrl+Enter