Song: N.I.B. (Navity in Black)
Artists: Dave Lordson & Dave Herrick 

Bass solo intro

G----------------|-----------|-------------|---------------|------------------|
D----------5--^5-|-7-9-7^5---|-----5--^5-7-|-9^12-14-14-15-|-14^12------------|
A-7^7-5^-----7---|---------7-|-5^----7-----|---------------|------14^12-14-10-|
E-------7--------|-----------|---7---------|---------------|------------------|

G-------------|-----------|------------|-------------|----------------------|
D--^5-7-9^7-5-|-----------|--------^5--|-5^7-9-7^5---|---^12-14^14-14-12^---|
A-7-----------|-7^5-------|-----7-7--7-|-----------7-|-14----------------14-|
E-------------|-----7-3-0-|-3^5--------|-------------|----------------------|

G----------------|-------------|-------------|-------------|----------|-
D----------------|--^5--^5-7-9-|-7^5---5-----|-------------|-----5----|-
A-12^14-10-7^5---|-7---7-------|-----7---7^5-|--^5---------|-5^7---7*-|-
E--------------7-|-------------|-------------|-7---3-0-3^5-|----------|-

G-------------|--------------|-------------|-------------|--------------|-
D-----------5-|-9-7-5-(rest)-|-------5-5-7-|-9^7-5-------|---------5-7--|-
A-5^--5-5^7---|--------------|--5^7--------|-------7-5^--|-----5^7------|-
E---7---------|--------------|-------------|-----------3-|-5^7----------|-

G---------------|----------------------|-------------|-----------|--------|-
D-9^7-5-----^12-|-14^14-12^------------|-------5-----|-----------|---5----|-
A-------7-14----|----------14-12^14-10-|-7^5-----7^5-|---7-5-----|-7---7*-|-
E---------------|----------------------|-----7-------|-7-----5^7-|--------|-

G----------------|----------|-------------|--------|---------|----------|-
D------^5-^5--^5-|-7^5------|------^5-^5-7|-9-7-5*-|---------|----------|-
A-7^5-7--7---7---|-----7-7*-|-7^5-7--7----|--------|-7-7-7-7-|-7^5---7*-|-
E----------------|----------|-------------|--------|---------|-----7----|-


Текст, аккорды и табулатура для песни "Nib", исполняет "Herrick Dave".
Используемые в песне аккорды можно найти в разделе Как брать аккорды. Аккорды для шестиструнной гитары. Другие песни можно найти на нашем сайте, воспользовавшись алфавитным указателем вверху страницы.


 
Ошибка в тексте? Выделите ошибку и нажмите Ctrl+Enter