Dave Herrick - In Heat

          G:--------------------------------------------------------
          D:--------------------------------------------------------
          A:--------------------------------------------------------
          E:-9-2-2-2-2-2-2/-5-5-5-5-5-5-2-2-2-2-2-2/-8-8-8-7-7-7-

          G:--------------------------------------------------------
          D:--------------------------------------------------------
          A:--------------------------------------------------------
          E:-2-2-2-2-2-2/-5-5-5-5-5-5-2-2-2-2-2-2/-8-8-8-7-7-7--2-

          G:------------------------------------------------------------
          D:------------------------------------------------------------
          A:-----------4--4--3--3--2-3-2-3-2--------4--4--3--3--2-3/-7-
          E:-9--2--2-------------------------2--2----------------------

          G:--------------------------------------------------------
          D:--------------------------------------------------------
          A:-------4--4--3--3--2-3-2-3-2--------4--4--3--3--2-3/-7-
          E:-2--2-------------------------2--2----------------------


Текст, аккорды и табулатура для песни "In Heat", исполняет "Herrick Dave".
Используемые в песне аккорды можно найти в разделе Как брать аккорды. Аккорды для шестиструнной гитары. Другие песни можно найти на нашем сайте, воспользовавшись алфавитным указателем вверху страницы.


 
Ошибка в тексте? Выделите ошибку и нажмите Ctrl+Enter