Dave Herrick - How The South Has Won


e------------------------------------------------------------------------------------------12-----12--|
b---------------------3-1-0-1--------------------------3-1-0-1--1-3-4s-10-13-12---10-12-13----12~-----|
g--2-5(A.H)-4-2-4~--2---------------2-5(A.H)-4-2-4~--2--------------------------9---------------------|
d-----------------------------------------------------------------------------------------------------|
a-----------------------------------------------------------------------------------------------------|
e-----------------------------------------------------------------------------------------------------|


e--10-8-7-8~-8s10----------------------------------------------------8-11-10--------------------11-10-11-|
b-----------------9-------------9-------------------------------7-10---------8------------8--------------|
g-------------------10-7---7-10------8-7-5-7~----10-8-7-8~-8-10-----------------5-7-8-7-8----10----------|
d------------------------9---------5----------10---------------------------------------------------------|
a--------------------------------------------------------------------------------------------------------|
e--------------------------------------------------------------------------------------------------------|


e--------------------------------------------------------|
b-----12p9----------9-12-15p12---------------------------|
g--10------10----10------------13----------------13*p*12-|
d-------------12------------------15-12----12-15---------|
a---------------------------------------14---------------|
e--------------------------------------------------------|


e---------------------------------------------------------------------------|
b-------5-7-8-----------------------5-7-8-----------------------5-7-7-11----|
g--3-3--x-x-x-4-4-4-4-4-4-4-4--3-3--x-x-x-4-4-4-4-4-4-4-4--3-3--x-x-x-x-----|
d--x-x--2-4-5-4-4-4-4-4-4-4-4--x-x--2-4-5-4-4-4-4-4-4-4-4--x-x--2-4-5-8-7-5-|
a--3-3--------2-2-2-2-2-2-2-2--3-3--------2-2-2-2-2-2-2-2--3-3--------------|
e---------------------------------------------------------------------------|


Текст, аккорды и табулатура для песни "How The South Has Won", исполняет "Herrick Dave".
Используемые в песне аккорды можно найти в разделе Как брать аккорды. Аккорды для шестиструнной гитары. Другие песни можно найти на нашем сайте, воспользовавшись алфавитным указателем вверху страницы.


 
Ошибка в тексте? Выделите ошибку и нажмите Ctrl+Enter