Dave Herrick - How the South has Won
Matt Cole ([email protected])

                               
                           


The best bass song I ever heard

Intro
G----------------------------------------------------------------------
D---------2---------------2-----------------2-----------2------------5
A----------------------------------------------------------------------
E-102030405060708---1020302030403-------2030203050306---00030030030040-

Verse
G--------------------------------------------------------------------
D--------------------------------------------------------------------
A--6-5-6-5-6-5-6-5-6-5-6-5-6-5-6-5-6-5-6-5-6-5-6-5-6-5-6-5-6-5-6-5-6-
E-7-7-7-7-7-7-7-7-7-7-7-7-7-7-7-7-7-7-7-7-7-7-7-7-7-7-7-7-7-7-7-7-7--

Pre Chours:
G-------------------------------------------------
D----4---5-------------2-2-2-2-2-2-2-2-2-2-2-2-2-2
A--1---1------------------------------------------
E-0-2-0-3-0-0-0-0-0-0-0-0-0-0-0-0-0-0-0-0-0-0-0-0-

Chours
G----8---8---8---8---8---8---8---8---8---8---8---8---8---8---8---8----1
D--9---7---9---7---9---7---9---7---9---7---9---7---9---7---9---7---9--1
A---------------------------------------------------------------------0
E-7-7-5-5-7-7-5-5-7-7-5-5-7-7-5-5-7-7-5-5-7-7-5-5-7-7-5-5-7-7-5-5-7-7-3

Bass solo
G----------------0/12p17-6^^-------------------8p7p5p10p8p7p5~~~~
D------------2p5~------------------------5p7p8-------------------
A----------------------------------5p7p8-------------------------
E-7-8-/19~~~-----------------5p7p8-------------------------------

Outro:
G------------------3p5-6~---------
D---------------3p5---------------
A-----------3p5-------------------
E-6/1~~-3p5--------------61~----0


Текст, аккорды и табулатура для песни "How The South Has Won", исполняет "Herrick Dave".
Используемые в песне аккорды можно найти в разделе Как брать аккорды. Аккорды для шестиструнной гитары. Другие песни можно найти на нашем сайте, воспользовавшись алфавитным указателем вверху страницы.


 
Ошибка в тексте? Выделите ошибку и нажмите Ctrl+Enter