Dave Herrick - Hearing Things          Intro
          
          G-------------------------------------------------
          D-------------------------------------------------
          A-------------------------------------------------
          E-5----5----4-3---3-0-3-4-5----5----4-3---3-0-4-5-
          
          Verse 1
          
          G-------------------------------------------------
          D-------------------------------------------------
          A---------------------------------------7--------
          E-5----5----4-3---3---3-2---1--0-0-0-0------------
          
          Verse 2
          
          G-------------------------------------------------
          D-------------------------------------------------
          A---------------------------------9---------------
          E-3---3---3---3-----/---------7-------7-----------
          
          Continuation of Verse 2
          
          G-------------------------------------------------
          D-------------------------------------------------
          A---------------5--------------5-5---------------
          E-7--------3------2--2--0--0---------------------


Текст, аккорды и табулатура для песни "Hearing Things", исполняет "Herrick Dave".
Используемые в песне аккорды можно найти в разделе Как брать аккорды. Аккорды для шестиструнной гитары. Другие песни можно найти на нашем сайте, воспользовавшись алфавитным указателем вверху страницы.


 
Ошибка в тексте? Выделите ошибку и нажмите Ctrl+Enter