|-----------------------------------------------------------
|----------------------------6-6-5---5h6p5------------------
|---------5-7-4-5-5p4/2-5-4--------7------------------------
|-7---5-7----------------------------------7-7-5---5h7p5----
|---7--------------------------------------------7-------7--
|-----------------------------------------------------------

|-----------------------------------------------------------
|------------------------------8-6-5------------------------
|---------5-7-5-7-7p5/4-7-5----------5-7-5h7p5p4-7-5--------
|-7---5-7--------------------7-----------------------7-7----
|---7-------------------------------------------------------
|-----------------------------------------------------------

|-----------------------------------------------------------
|----------------------------6-6-5---5h6p5------------------
|---------5-7-4-5-5p4/2-5-4--------7------------------------
|-7---5-7----------------------------------7-7-5---5h7p5----
|---7--------------------------------------------7-------7--
|-----------------------------------------------------------

|-----------------------------------------------------------
|----------------------------/7777/9999/11111111-----------
|---------7-7--5-7-7p5p4-7-5-/6666/8888/10101010-----------
|-7---5-7---------------------------------------------------
|---7-------------------------------------------------------
|-----------------------------------------------------------

|------------------------------------------------------------------------------------------
|-13-13b15r13----------13b15r13----------13-13b15r13----------13-13b16r13------------------
|-------------14-12-14----------14-12-14-------------14-12-14-------------14-12-14---------
|------------------------------------------------------------------------------------------
|------------------------------------------------------------------------------------------
|------------------------------------------------------------------------------------------

-------------------------------------------------------------------------------------------
--15b17b15----------15b17r15----------17b18r17----------20b22------------------------------
-----------17-14-17----------17-14-17----------19-17-19------------------------------------
-------------------------------------------------------------------------------------------
-------------------------------------------------------------------------------------------
-------------------------------------------------------------------------------------------

|------15-------15----------------------------------------------------------------------------------------
|15b17----15b17-----17r15----15-17-17p15----15------------------------------------------------------------
|-------------------------17------------p17----17-14-17-14------------------------12-10-9-----------------
|-----------------------------------------------------------17-14-17-14-12-10-12---------p12p10-----------
|-----------------------------------------------------------------------------------------------12--------
|---------------------------------------------------------------------------------------------------------

|---------------------------------------------------------------------------------------------------------
|13p12---13p12---13p12---13p12---12p10---12p10---12p10---12p10---10p8---10p8---10p8---10p8----8/10-10--10-
|-----p14-----p14-----p14-----p14-----p12-----p12-----p12-----p12----p10----p10----p10----p10-7/-9--9---9-
|---------------------------------------------------------------------------------------------------------
|---------------------------------------------------------------------------------------------------------
|---------------------------------------------------------------------------------------------------------

|---------------------------------------------------------------------------------------------------------
|13p12---13p12---13p12---13p12---12p10---12p10---12p10---12p10---10p8---10p8---10p8---10p8----8/10-10--10-
|-----p14-----p14-----p14-----p14-----p12-----p12-----p12-----p12----p10----p10----p10----p10-7/-9--9---9-
|---------------------------------------------------------------------------------------------------------
|---------------------------------------------------------------------------------------------------------
|---------------------------------------------------------------------------------------------------------

Questions or comments to [email protected]


Текст, аккорды и табулатура для песни "La Herida", исполняет "Heroes Del Silencio".
Используемые в песне аккорды можно найти в разделе Как брать аккорды. Аккорды для шестиструнной гитары. Другие песни можно найти на нашем сайте, воспользовавшись алфавитным указателем вверху страницы.


Слушать онлайн La Herida


Heroes Del SilencioLa Herida на Яндекс.Музыке


 
Ошибка в тексте? Выделите ошибку и нажмите Ctrl+Enter