Tablatura di E. Talotti
Jimmi Hendrix - Woodstock 1968 - Star Spangled Banner

                   sl                         hp  sl
e-------------0-|-2/4-2--0--------|-----4--2-020----|-----0-0------|
b-0--------0----|-----------------|--------------2/4|-2-4-----0----|
g---1----1------|-----------1-3-4~|-4-4-------------|-----------1--|
d-----2---------|-----------------|-----------------|-------------2|
a---------------|-----------------|-----------------|--------------|
e---------------|-----------------|-----------------|--------------|
                 sl   trl      trl                             trl trl
e-----------0-|-2/4-24242424-020202020-|-------------|------------------|
b-0-------0---|------------------------|-------------|------------------|
g---1---1-----|------------------------|-1-1/3/1/3/4-|-6-6-8^-6868-4646-|
d-----2-------|------------------------|-------------|------------------|
a-------------|------------------------|-------------|------------------|
e-------------|------------------------|-------------|------------------|
    
            hp sl 
e-----------------|-----0-0-------|
b-0-0-7^~-7-575/4-|-2-4-----0-----|
g-----------------|-----------1---|
d-----------------|-------------2-|
a-----------------|---------------|
e-----------------|---------------|

                                              hpp 
e---------------12^|-5-4-2-4-5-5------|-5-4--2420--0----|
b-9-9-9-10-12-12---|------------------|------------4^-4~|
g------------------|------------3--3-2|-----------------|
d------------------|-------------2--2-|-----------------|
a------------------|------------------|-----------------|
e------------------|------------------|-----------------|


e--------------16|-----16------16-----16~|-----0-0-0|
b-------17---17--|---17------17-----17~--|-0-0-----4|
g-16-16----16----|-16------16-----16~----|----------|
d----------------|-----------------------|----------|
a----------------|-----------------------|----------|
e----------------|-----------------------|----------|

  turbo-picking
e-----------------------22222222-44444444-55545-444|
b-22222222-44444444-5555---------------------------|
g--------------------------------------------------|
d--------------------------------------------------|
a--------------------------------------------------|
e--------------------------------------------------|


   hpp               sl  sl                  p       SL
e-2420~-----|--------------7/-|-0-2-4-454/2~0~|-4-4/9/11|
b-----4^~-4~|-0-0-5-5/7-7/9----|---------------|-4-4/9/11|
g-----------|------------------|---------------|-5-5/10/12|
d-----------|------------------|---------------|-6-6/11/13|
a-----------|------------------|---------------|----------|
e-----------|------------------|---------------|----------|

e-0~-------|
b-0~-------|
g----------|
d----------|
a----------|
e----------|


Текст, аккорды и табулатура для песни "The Star Spangled Banner", исполняет "Hendrix Jimi".
Используемые в песне аккорды можно найти в разделе Как брать аккорды. Аккорды для шестиструнной гитары. Другие песни можно найти на нашем сайте, воспользовавшись алфавитным указателем вверху страницы.


 
Ошибка в тексте? Выделите ошибку и нажмите Ctrl+Enter