#----------------------------------PLEASE NOTE---------------------------------#
#This file is the author's own work and represents their interpretation of the #
#song. You may only use this file for private study, scholarship, or research. #
From: [email protected]
Date: Fri, 19 Jan 1996 17:39:19 -0500
Subject: TAB:angel by jimi_hendrix--revised copy

Transcription by Max
Send all comments to [email protected]

Guitar tuned down 1/2 step:

Intro                             F#    C#6     G#m

           B  E                     C#  B   C#    B   D F#

  G#       A#       B  Bsus  E F#m7 C  A   D  D# E


F#      C#6                              G#m
Angel came down from heaven yesterday

B                                   E   
Stayed with me just long enough to rescue me....

F#         C#6                  G#m                
And she told me a story yesterday

B                        E         
About the sweet love between the moon and the deep blue sea

B                           D              F#
The she spread her wings high over me....she said

G#m               A#m                 
I'll come back again to see you tomorrow

B     Bsus
      And I said


E                       F#m7/E            
Fly on my sweet angel

C    A    D        D#  E
Fly on through the sky

E                       F#m7/E   
Fly on my sweet angel

C             A              D   D#      E
Tomorrow I'm 'gonna be by your side

Sure enough to this woman came home to me
Silver wings silhouetted against a child's sunrise
And my angel she said unto me
today is the day for you to rise
Take my hand come you're gonna be my man
and she took me high over yonder

Well, I don't know how the tab is going to look, since I only wrote it
in Windows Notepad. But if you line up the chords and bars vertically, 
all the licks should fall into place. This song was originally played through
a Leslie speaker, but sounds fine through a phaser or flanger.


I've only tabbed the intro yet. The rest will follow later.
The whole song is played with the guitar tuned down a half step.
A Leslie is used to get the 'spacy sound'. This effect can be emulated with a chorus
pedal at a medium slow rate.

 Eb |0--0-------0------------0---|0---------------0-----------|
 Bb |7-----7----7----7-------7s5-|5---5--------5--5--5--------|
 Gb |4--------4---4--4-----------|2---2--------2--2--2s4------|
 Db |6--------6---6--------6-----|4------4--4-----4--4--------|
 Ab |6-----------------6---------|4------4--4-----------------|
 Eb |0-------------------0-------|0---------0-----------------|

 Eb |0-----0--0----0---0---0-------|0------------------------0----|
 Bb |7-----7--7----12--12--14--14--|5---------------------5--5----|
 Gb |4-----4--4----9---9---11--11--|2------2--------------2--2----|
 Db |6--6-----6----11--11--13--13--|4--4---------4--------4-----4-|
 Ab |--------------11--11----------|4---------4-----4-----------4-|
 Eb |------------------------------|0------------------0----------|

Текст, аккорды и табулатура для песни "Little Wing", исполняет "Hendrix Jimi".
Используемые в песне аккорды можно найти в разделе Как брать аккорды. Аккорды для шестиструнной гитары. Другие песни можно найти на нашем сайте, воспользовавшись алфавитным указателем вверху страницы.

Ошибка в тексте? Выделите ошибку и нажмите Ctrl+Enter