W/MAX DISTORTION


|-----------------------------------------------------|
|-X~~~~~~~~~~~~~~~~~~~~~~~~~/~~~~~~~~~~~~~~~~~~~~~~--|
|-X~~~~~~~~~~~~~~~~~~~~~~~~~/~~~~~~~~~~~~~~~~~~~~~~--|
|----(PLEC SCRAPE)------------------------------------|
|-----------------------------------------------------|
|-----------------------------------------------------|



|-3-------0-------0-------2-----------3-H-5----3-------0-------0-------------------|
|-0-------0-------1-------3-----------3--------3-------0-------1-------0-----------|
|-0-------0-------2-------2-----------2--------0-------0-------0-------0-----------|
|-0-------2-------2-------0--------------------0-------2-------2-------0-----------|
|-2-------2-------0----------------------------2-------2-------3-------2-----------|
|-3-------0-------0----------------------------------------------------------------|

 

|------0---------------3--------2-------3--------------------------------------------|
|-(0)--0-------1-------3--------3-------0--------------------------------------------|
|-(0)--0-------2-------2--------2-------0-----  -------------------------------|
|-(2)--2-------0------------------------2---------------------0------0--2--0--2--3---|
|--3---0--------------------------------3------------------3-----3-------------------|



|-3------------------------3---------------3-----2--------------------2-----------|
|-0----------------0-------3-------------3-------3--------------------1-----------|
|-0-------0--------0-------0-----------0---------2--------------2-----2-----------|
|-0-------0--------------------------------------0-------4------------0-----------|
|-2-------2-----------------------------------------------------------------------|
|-3-------------------------------------------------------------------------------|

 

|-----2-----3---------------3-----(3)--/--7-------8-------3-------2--------0-----------|
|---1-------0-------------1-3-----(3)--/--7-------8-------3-------3--------1-----------|
|-2---------0-----------0---4-----(4)--/--8-------9-------4-------2--------0-----------|
|-----------0---------2-----5-----(5)--/--9-------10------5-------0--------2-----------|
|-----------2-------3-------5-----(5)--/--9-------10------5----------------3-----------|
|-----------3---------------3-----(3)--/--7-------8-------3----------------3-----------|

                                                    ()
                                                    ||______________________
|-H-1---P-0-------------------3--------3--X--|     ||    ##############    |
|--(1)------------------------3--------3--X--|     ||##     ########     ##|
|--(0)-------  ---------4--------4--X--|     ||#####     ##     #####|
|--(2)-------  ---------5--------5--X--|     ||########      ########|
|--(3)------------------------5--------5--X--|     ||#####     ##     #####|
|--(3)------------------------3--------3--X--|     ||##     ########     ##|
                                                    ||____##############____|
                                                    ||
                                                    ||______________________
     **************************                     ||          ##          |
     * TABBED BY DANIEL HEARN *                     ||          ##          |
     *     -2001-     UK      *                     ||          ##          |
     **************************                     ||######################|
                                                    ||          ##          |
                                                    ||          ##          |
                                                    ||__________##__________|
                                                    ||
                                                    ||
                                                    ||
                                                    ||
                                                    ||
                                                    ||
                                                    ||
                                                    ||
                                                    ||
                                                    ||
                                                    ||
                                                    ||
                                                    ||
                                                    ||
                                                    ||
                                                    ||
                                             _____||//_____


Текст, аккорды и табулатура для песни "God Save The Queen", исполняет "Hendrix Jimi".
Используемые в песне аккорды можно найти в разделе Как брать аккорды. Аккорды для шестиструнной гитары. Другие песни можно найти на нашем сайте, воспользовавшись алфавитным указателем вверху страницы.


 
Ошибка в тексте? Выделите ошибку и нажмите Ctrl+Enter