Burning Of The Midnight Lamp - Jimi Hendrix

bass enters after guitar does four bars at about 0:15

  intro/bridge
G|--------3h5-------------------------------------|
D|3h5---------3---1h3---3-2-----------------------|
A|----3---------------3-----3-5-5-3-5-7---23202---|
E|----------------------------------------------23|

  verse
G|----------------------------------------------------------------------------------------------
D|-------3--3020--------------------------------2-2-----1-2--2020----/5-/5-33445----23/5--55-3--
A|-----23-------5-5--35-5-3h5-3-2-2-----22222222----2h3----------3-3--------------33-----------5
E|1-1-------------------------------1-12--------------------------------------------------------

-----------------|
------3---3034045|
5-5050-----------|
--------1--------|

  chorus (x3)         (drop that last 5 and use this 3 on the third run through)
G|-------------------|----|
D|5--/5--/5--2h3445--|----|
A|-------------------|----|
E|-------------------|3---|

All I can tell you about the solo is it's in G

tabbed by Achilles ([email protected])


Текст, аккорды и табулатура для песни "Burning Of The Midnight Lamp", исполняет "Hendrix Jimi".
Используемые в песне аккорды можно найти в разделе Как брать аккорды. Аккорды для шестиструнной гитары. Другие песни можно найти на нашем сайте, воспользовавшись алфавитным указателем вверху страницы.


 
Ошибка в тексте? Выделите ошибку и нажмите Ctrl+Enter