-----------------------------------------------------------------------------
                        SPEECHLESS - Helmet
-----------------------------------------------------------------------------

Tabbed by an17nin17
Email - [email protected]

Drop C# Tuning - C#, G#, C#, F#, A#, D#

Intro

|-------------------------------------|
|-------------------------------------|
|-------------------------------------|
|-0~~---6-5-4~~---3-3-3-3-3-3-3-3-3-3-|
|-0~~---6-5-4~~---3-3-3-3-3-3-3-3-3-3-|
|-0~~---6-5-4~~---3-3-3-3-3-3-3-3-3-3-|

Verse
                                    1,2,4|                              
|------------------------------|---------|-------7-7-7-7-7-7-7-7-6-6-6-6-|
|------------------------------|---------|-------7-7-7-7-7-7-7-7-6-6-6-6-|
|---------3-2h3----------------|-3-2h3---|-------6-6-6-6-6-6-6-6-5-5-5-5-|
|-1---1---------1---1-x-x--x-x-|-------1-|-1-0h1-4-4-4-4-4-4-4-4-3-3-3-3-|
|-1---1---------1---1-x-x--x-x-|-------1-|-1-0h1-4-4-4-4-4-4-4-4-3-3-3-3-|
|-1---1---------1---1-x-x--x-x-|-------1-|-1-0h1-4-4-4-4-4-4-4-4-3-3-3-3-|

         3|                                 5|
|-6-6-6-6-|-------7-7-7-7-7-7-7-7------/9--9-|
|-6-6-6-6-|-------7-7-7-7-7-7-7-7------/9--9-|
|-5-5-5-5-|-------6-6-6-6-6-6-6-6------/8--8-|
|-3-3-3-3-|-1-0h1-4-4-4-4-4-4-4-4-0--0-/6--6-|
|-3-3-3-3-|-1-0h1-4-4-4-4-4-4-4-4-0--0-/6--6-|
|-3-3-3-3-|-1-0h1-4-4-4-4-4-4-4-4-0--0-/6--6-|

Chorus

|-4--4-4-4-/11-111111/7--7-7-7-/9--9-9-9-|
|-4--4-4-4-/11-111111/7--7-7-7-/9--9-9-9-|
|-3--3-3-3-/10-101010/6--6-6-6-/8--8-8-8-|
|-1--1-1-1-/8--8-8-8-/4--4-4-4-/6--6-6-6-|
|-1--1-1-1-/8--8-8-8-/4--4-4-4-/6--6-6-6-|
|-1--1-1-1-/8--8-8-8-/4--4-4-4-/6--6-6-6-|
  Play x 4

Middle 8
                                               1|                  2|
|-11-11111112-121212|-14--14-14-14-16--16-16-16-|-7--7-7-7-9--9-9-9-|
|-11-11111112-121212|-14--14-14-14-16--16-16-16-|-7--7-7-7-9--9-9-9-|
|-10-10101011-111111|-13--13-13-13-15--15-15-15-|-6--6-6-6-8--8-8-8-|
|-8--8-8-8-9--9-9-9-|-11--11-11-11-13--13-13-13-|-4--4-4-4-6--6-6-6-|
|-8--8-8-8-9--9-9-9-|-11--11-11-11-13--13-13-13-|-4--4-4-4-6--6-6-6-|
|-8--8-8-8-9--9-9-9-|-11--11-11-11-13--13-13-13-|-4--4-4-4-6--6-6-6-|

                   3|
|-14-14-14-14-14-14-|
|-14-14-14-14-14-14-|
|-13-13-13-13-13-13-|
|-11-11-11-11-11-11-|
|-11-11-11-11-11-11-|
|-11-11-11-11-11-11-|

Solo

|------------------|
|------------------|
|------------------|
|-0-1-3--0-1-x-3-4-|
|-0-1-3--0-1-x-3-4-|
|-0-1-3--0-1-x-3-4-|
  Play x 12

Outro

|-4--4-4-4-/11-111111/7--7-7-7-/9--9-9-9-|-----|
|-4--4-4-4-/11-111111/7--7-7-7-/9--9-9-9-|-----|
|-3--3-3-3-/10-101010/6--6-6-6-/8--8-8-8-|-----|
|-1--1-1-1-/8--8-8-8-/4--4-4-4-/6--6-6-6-|-4~~-|
|-1--1-1-1-/8--8-8-8-/4--4-4-4-/6--6-6-6-|-4~~-|
|-1--1-1-1-/8--8-8-8-/4--4-4-4-/6--6-6-6-|-4~~-|
  Play x 8                               |

And That's It.


Текст, аккорды и табулатура для песни "Speechless", исполняет "Helmet".
Используемые в песне аккорды можно найти в разделе Как брать аккорды. Аккорды для шестиструнной гитары. Другие песни можно найти на нашем сайте, воспользовавшись алфавитным указателем вверху страницы.


Слушать онлайн Speechless


HelmetSpeechless на Яндекс.Музыке


 
Ошибка в тексте? Выделите ошибку и нажмите Ctrl+Enter