-----------------------------------------------------------------------------
                            RUDE - Helmet
-----------------------------------------------------------------------------

Tabbed by an17nin17
Email - [email protected]

Drop D Tuning - D, A, D, G, B, E 
 
Intro 

|-------------|-------------------------| 
|-------------|-------------------------| 
|-------------|-------------------------| 
|-5-5-5-5-5-5-|-5-5-5-5-5-5-5-5-5-5-5-5-| 
|-5-5-5-5-5-5-|-7-7-7-7-7-7-5-5-5-5-5-5-| 
|-5-5-5-5-5-5-|-5-5-5-5-5-5-5-5-5-5-5-5-| 
  Play x 3    | Play x 6 

Verse 

|--------------------| 
|--------------------| 
|--------------------| 
|-0---0-0-0---0-0-3^-| 
|-0---0-0-0---0-0-3^-| 
|-0---0-0-0---0-0-3^-| 
  Play x 16 

Chorus 

|----------------------|---------------------| 
|----------------------|-4-4-4-4-------------| 
|----------------------|-4-4-4-4-------------| 
|-/5-5-5-5-5-5-5-5-5-5-|-4-4-4-4-5-5-5-5-5-5-| 
|-/5-5-5-5-5-5-5-5-5-5-|-4-4-4-4-5-5-5-5-5-5-| 
|-/5-5-5-5-5-5-5-5-5-5-|-4-4-4-4-5-5-5-5-5-5-| 
  Play x 2             | Play x 8 

|--------------------| 
|--------------------| 
|--------------------| 
|-0---0-0-0---0-0-3^-| 
|-0---0-0-0---0-0-3^-| 
|-0---0-0-0---0-0-3^-| 
  Play x 12 

|----------------------|---------------------| 
|----------------------|-4-4-4-4-------------| 
|----------------------|-4-4-4-4-------------| 
|-/5-5-5-5-5-5-5-5-5-5-|-4-4-4-4-5-5-5-5-5-5-| 
|-/5-5-5-5-5-5-5-5-5-5-|-4-4-4-4-5-5-5-5-5-5-| 
|-/5-5-5-5-5-5-5-5-5-5-|-4-4-4-4-5-5-5-5-5-5-| 
  Play x 2             | Play x 8 

Solo 

|---------------------------------|-------------------------------------|
|---------------------------------|-------------------------------------|
|---------------------------------|-------------------------------------|
|-3-3-3-3-3-3-3-3-0-0-0-0-0-0-0-0-|-6-6-6-6-6-6-6-6-6-6-6-6-6-6-6-6-3-3-|
|-3-3-3-3-3-3-3-3-0-0-0-0-0-0-0-0-|-6-6-6-6-6-6-6-6-6-6-6-6-6-6-6-6-3-3-|
|-3-3-3-3-3-3-3-3-0-0-0-0-0-0-0-0-|-6-6-6-6-6-6-6-6-6-6-6-6-6-6-6-6-3-3-|
  Play x 2                        |

|------------------------------------------------| 
|------------------------------------------------| 
|------------------------------------------------| 
|-3-3-3-3-3-3-9-9-9-9-9-9-10-10-10-10-10p0--10p0-| 
|-3-3-3-3-3-3-9-9-9-9-9-9-10-10-10-10-10p0--10p0-| 
|-3-3-3-3-3-3-9-9-9-9-9-9-10-10-10-10-10p0--10p0-| 

|--------------------| 
|--------------------| 
|--------------------| 
|-0---0-0-0---0-0-3^-| 
|-0---0-0-0---0-0-3^-| 
|-0---0-0-0---0-0-3^-| 
  Play x 12 

Outro 

|-----------------------|-----|
|-0---0---0---0---0---0-|-----|
|-0---0---0---0---0---0-|-----|
|-5---5---5---5---5---5-|-5~~-|
|-5---5---5---5---5---5-|-5~~-|
|-5---5---5---5---5---5-|-5~~-|
  Play x 16             |

And Thats's It

Contact me if you have any comments about this tab.


Текст, аккорды и табулатура для песни "Rude", исполняет "Helmet".
Используемые в песне аккорды можно найти в разделе Как брать аккорды. Аккорды для шестиструнной гитары. Другие песни можно найти на нашем сайте, воспользовавшись алфавитным указателем вверху страницы.


Слушать онлайн Helmet


Ruder Than YouHelmet на Яндекс.Музыке


 
Ошибка в тексте? Выделите ошибку и нажмите Ctrl+Enter