Warrior by Helloween
Transcribed by Vinicius Neves ([email protected])
ONLY BASS TABS - http://basstabs.cjb.net

Intro
|--------------------------------------------------------------------|
|--------------------------------------------------------------------|
|--7-----5--7-----3-3-3-3--3---5-5-5-5--5---10-10-9-9-7-7-5-5--7-----|
|-----------------------------------------------------------------7--|

|--------------------------------------------------------------------|
|--------------------------------------------------------------------|
|--7-----5--7-----3-3-3-3--3---5-5-5-5--5---10-10-9-9-7-7-5-5--7-----|
|-----------------------------------------------------------------7--|

|----------------------------------------------------------|
|----------------------------------------------------------|
|--7-------------------------5--7--------------------------|
|----0-0--0--0-0--0--0-0--0--------0-0--0--0-0--0--0-0--0--|

|---------------------------------------------------|
|---------------------------------------------------|
|--3-3-3-3--3--5-5-5-5--5--10-10-9-9-7-7-5-5--7-----|
|------------------------------------------------7--|

|----------------------------------------------------------|
|----------------------------------------------------------|
|--7-------------------------5--7--------------------------|
|----0-0--0--0-0--0--0-0--0--------0-0--0--0-0--0--0-0--0--|

|---------------------------------------------------|
|---------------------------------------------------|
|--3-3-3-3--3--5-5-5-5--5--10-10-9-9-7-7-5-5--7-----|
|------------------------------------------------7--|

Verse
|-------------------------------|-------------------------------|
|-------------------------------|-------------------------------|
|-------------------------------|-------------------------------|
|-2--2-2--2--2-2--2--2-2--2--2--|-2--2-2--2--2-2--2--2-2--2--2--|

|-------------------------|------------------------------------|
|-------------------------|---------------------------------2--|
|-5-5-5-5--5--7-7-7-7--7--|-----------------------------2-4----|
|-------------------------|-2--2-2--2--2-2--2--2-2--2-4--------|

|-------------------------------|-------------------------------|
|-------------------------------|-------------------------------|
|-------------------------------|-------------------------------|
|-2--2-2--2--2-2--2--2-2--2--2--|-2--2-2--2--2-2--2--2-2--2--2--|

|-------------------------|------------------------------------|
|-------------------------|------------------------------------|
|-5-5-5-5--5--7-7-7-7--7--|-------------------------4-2--------|
|-------------------------|-2--2-2--2--2-2--2--2-2------4-2----|

Bridge 1
|----------------------------------------------------|
|----------------------------------------------------|
|-5-5-5-5--5----------------5-5-5-5--5---------------|
|--------------2-2-2-2--2----------------2-2-2-2--2--|

|--------------------------------------------------------------|
|--------------------------------------------------------------|
|-5-5-5-5--5----------------4--4-4--4--4-4--4--4-4--4--4-4--4--|
|--------------2-2-2-2--2--------------------------------------|

Then return to the second half of the intro
|----------------------------------------------------------|
|----------------------------------------------------------|
|--7-------------------------5--7--------------------------|
|----0-0--0--0-0--0--0-0--0--------0-0--0--0-0--0--0-0--0--|

|---------------------------------------------------|
|---------------------------------------------------|
|--3-3-3-3--3--5-5-5-5--5--10-10-9-9-7-7-5-5--7-----|
|------------------------------------------------7--|

|----------------------------------------------------------|
|----------------------------------------------------------|
|--7-------------------------5--7--------------------------|
|----0-0--0--0-0--0--0-0--0--------0-0--0--0-0--0--0-0--0--|

|---------------------------------------------------|
|---------------------------------------------------|
|--3-3-3-3--3--5-5-5-5--5--10-10-9-9-7-7-5-5--7-----|
|------------------------------------------------7--|

Verse
|-------------------------------|-------------------------------|
|-------------------------------|-------------------------------|
|-------------------------------|-------------------------------|
|-2--2-2--2--2-2--2--2-2--2--2--|-2--2-2--2--2-2--2--2-2--2--2--|

|-------------------------|------------------------------------|
|-------------------------|---------------------------------2--|
|-5-5-5-5--5--7-7-7-7--7--|-----------------------------2-4----|
|-------------------------|-2--2-2--2--2-2--2--2-2--2-4--------|

|-------------------------------|-------------------------------|
|-------------------------------|-------------------------------|
|-------------------------------|-------------------------------|
|-2--2-2--2--2-2--2--2-2--2--2--|-2--2-2--2--2-2--2--2-2--2--2--|

|-------------------------|------------------------------------|
|-------------------------|------------------------------------|
|-5-5-5-5--5--7-7-7-7--7--|-------------------------4-2--------|
|-------------------------|-2--2-2--2--2-2--2--2-2------4-2----|

Bridge 1
|----------------------------------------------------|
|----------------------------------------------------|
|-5-5-5-5--5----------------5-5-5-5--5---------------|
|--------------2-2-2-2--2----------------2-2-2-2--2--|

|--------------------------------------------------------------|
|--------------------------------------------------------------|
|-5-5-5-5--5----------------4--4-4--4--4-4--4--4-4--4--4-4--4--|
|--------------2-2-2-2--2--------------------------------------|

Chorus
|----------------------------|------------------------------|
|----------------------------|------------------------------|
|----------------------------|-0----------------------------|
|-0--2--2--2-2--2--2-2--2--2-|----2--2--2-2--2--2-2--2--2-2-|

|----------------------------|-------------|
|----------------------------|-------------|
|----------------------------|-0--0--0--7--|
|-0--2--2--2-2--2--2-2--2--2-|-------------|

|----------------------------|------------------------------|
|----------------------------|------------------------------|
|----------------------------|-0----------------------------|
|-0--2--2--2-2--2--2-2--2--2-|----2--2--2-2--2--2-2--2--2-2-|

|----------------------------|-------------|
|----------------------------|-------------|
|----------------------------|-4--4--4--4--|
|-0--2--2--2-2--2--2-2--2--2-|-------------|

Bridge 2
|-------------------------------------------|
|------------7---------------------7--------|
|-7-7-9-10-----10-9-5---7-7-9-10-----10--10-|
|----------------------------------------8--|

|-------------------------------------------|
|------------7---------------------7--10-9--|
|-7-7-9-10-----10-9-5---7-7-9-10------------|
|-------------------------------------------|

Solo
|-----------------------------------------------------------------|
|-----------------------------------------------------------------|
|-3--3-3--3--3-3--3--3-3--3--3-3---3--3-3--3--3-3--3--3-3--3--3-3-|
|-----------------------------------------------------------------|

|------------------------------------------------------|
|------------------------------------------------------|
|-5--5-5--5--5-5--5--5-5--5--5-5---10---9---7---9---5--|
|------------------------------------------------------|

|-----------------------------------------------------------------|
|-----------------------------------------------------------------|
|-3--3-3--3--3-3--3--3-3--3--3-3---3--3-3--3--3-3--3--3-3--3--3-3-|
|-----------------------------------------------------------------|

|------------------------------------------------------|
|------------------------------------------------------|
|-5--5-5--5--5-5--5--5-5--5--5-5---10---9---7---9---5--|
|------------------------------------------------------|

|-----------------------------------------------------------------|
|-----------------------------------------------------------------|
|-3--3-3--3--3-3--3--3-3--3--3-3---3--3-3--3--3-3--3--3-3--3--3-3-|
|-----------------------------------------------------------------|

|------------------------------------------------------|
|------------------------------------------------------|
|-5--5-5--5--5-5--5--5-5--5--5-5---10---9---7---9---5--|
|------------------------------------------------------|

|-----------------------------------------------------------------|
|-----------------------------------------------------------------|
|-3--3-3--3--3-3--3--3-3--3--3-3---3--3-3--3--3-3--3--3-3--3--3-3-|
|-----------------------------------------------------------------|

|------------------------------------------------------|
|------------------------------------------------------|
|-5--5-5--5--5-5--5--5-5--5--5-5---10---9---7---9---5--|
|------------------------------------------------------|

|----------------------------------------------------------------|
|----------------------------------------------------------------|
|7--7-7--7--7-7--7--7-7--7--7-7---3--3-3--3--3-3--3--3-3--3--3-3-|
|----------------------------------------------------------------|

|---------------------------------------------------|
|---------------------------------------------------|
|-5--5-5--5--5-5--5--5-5--5--5-5----10--9--10-9-5-7-|
|---------------------------------------------------|

|----------------------------------------------------------------|
|----------------------------------------------------------------|
|7--7-7--7--7-7--7--7-7--7--7-7---3--3-3--3--3-3--3--3-3--3--3-3-|
|----------------------------------------------------------------|

|---------------------------------------------------|
|---------------------------------------------------|
|-5--5-5--5--5-5--5--5-5--5--5-5----10--9--10-9-5-7-|
|---------------------------------------------------|

|--------------------------------|
|--------------------------------|
|-7--7-7--7--7-7--7--7-7--7--7-7-|
|--------------------------------|

|----------------------------|------------------------------|
|----------------------------|------------------------------|
|----------------------------|-0----------------------------|
|-0--2--2--2-2--2--2-2--2--2-|----2--2--2-2--2--2-2--2--2-2-|

|----------------------------|-------------|
|----------------------------|-------------|
|----------------------------|-0--0--0--7--|
|-0--2--2--2-2--2--2-2--2--2-|-------------|

|----------------------------|------------------------------|
|----------------------------|------------------------------|
|----------------------------|-0----------------------------|
|-0--2--2--2-2--2--2-2--2--2-|----2--2--2-2--2--2-2--2--2-2-|

|----------------------------|-------------|
|----------------------------|-------------|
|----------------------------|-4--4--4--4--|
|-0--2--2--2-2--2--2-2--2--2-|-------------|

Bridge 2
|-------------------------------------------|
|------------7---------------------7--------|
|-7-7-9-10-----10-9-5---7-7-9-10-----10--10-|
|----------------------------------------8--|

|-------------------------------------------|
|------------7---------------------7--10-9--|
|-7-7-9-10-----10-9-5---7-7-9-10------------|
|-------------------------------------------|

Back to second half of intro again
|----------------------------------------------------------|
|----------------------------------------------------------|
|--7-------------------------5--7--------------------------|
|----0-0--0--0-0--0--0-0--0--------0-0--0--0-0--0--0-0--0--|

|---------------------------------------------------|
|---------------------------------------------------|
|--3-3-3-3--3--5-5-5-5--5--10-10-9-9-7-7-5-5--7-----|
|------------------------------------------------7--|

|----------------------------------------------------------|
|----------------------------------------------------------|
|--7-------------------------5--7--------------------------|
|----0-0--0--0-0--0--0-0--0--------0-0--0--0-0--0--0-0--0--|

|---------------------------------------------------|
|---------------------------------------------------|
|--3-3-3-3--3--5-5-5-5--5--10-10-9-9-7-7-5-5--7-----|
|------------------------------------------------7--|

Verse
|-------------------------------|-------------------------------|
|-------------------------------|-------------------------------|
|-------------------------------|-------------------------------|
|-2--2-2--2--2-2--2--2-2--2--2--|-2--2-2--2--2-2--2--2-2--2--2--|

|-------------------------|------------------------------------|
|-------------------------|---------------------------------2--|
|-5-5-5-5--5--7-7-7-7--7--|-----------------------------2-4----|
|-------------------------|-2--2-2--2--2-2--2--2-2--2-4--------|

|-------------------------------|-------------------------------|
|-------------------------------|-------------------------------|
|-------------------------------|-------------------------------|
|-2--2-2--2--2-2--2--2-2--2--2--|-2--2-2--2--2-2--2--2-2--2--2--|

|-------------------------|------------------------------------|
|-------------------------|------------------------------------|
|-5-5-5-5--5--7-7-7-7--7--|-------------------------4-2--------|
|-------------------------|-2--2-2--2--2-2--2--2-2------4-2----|

Bridge 1
|----------------------------------------------------|
|----------------------------------------------------|
|-5-5-5-5--5----------------5-5-5-5--5---------------|
|--------------2-2-2-2--2----------------2-2-2-2--2--|

|--------------------------------------------------------------|
|--------------------------------------------------------------|
|-5-5-5-5--5----------------4--4-4--4--4-4--4--4-4--4--4-4--4--|
|--------------2-2-2-2--2--------------------------------------|

Chorus
|----------------------------|------------------------------|
|----------------------------|------------------------------|
|----------------------------|-0----------------------------|
|-0--2--2--2-2--2--2-2--2--2-|----2--2--2-2--2--2-2--2--2-2-|

|----------------------------|-------------|
|----------------------------|-------------|
|----------------------------|-0--0--0--7--|
|-0--2--2--2-2--2--2-2--2--2-|-------------|

|----------------------------|------------------------------|
|----------------------------|------------------------------|
|----------------------------|-0----------------------------|
|-0--2--2--2-2--2--2-2--2--2-|----2--2--2-2--2--2-2--2--2-2-|

|----------------------------|-------------|
|----------------------------|-------------|
|----------------------------|-4--4--4--4--|
|-0--2--2--2-2--2--2-2--2--2-|-------------|

|----------------------------|------------------------------|
|----------------------------|------------------------------|
|----------------------------|-0----------------------------|
|-0--2--2--2-2--2--2-2--2--2-|----2--2--2-2--2--2-2--2--2-2-|

|----------------------------|-------------|
|----------------------------|-------------|
|----------------------------|-0--0--0--7--|
|-0--2--2--2-2--2--2-2--2--2-|-------------|

|----------------------------|------------------------------|
|----------------------------|------------------------------|
|----------------------------|-0----------------------------|
|-0--2--2--2-2--2--2-2--2--2-|----2--2--2-2--2--2-2--2--2-2-|

|----------------------------|-------------|
|----------------------------|-------------|
|----------------------------|-4--4--4--4--|
|-0--2--2--2-2--2--2-2--2--2-|-------------|

Outro
|------------|------------|-------------|-----------|
|------------|------------|-------------|-----------|
|--4-4-4--4--|--2-2-2--2--|--0--0/12/0--|-----------|
|------------|------------|-------------|--2-2-0-2--|


Текст, аккорды и табулатура для песни "Warrior", исполняет "Helloween".
Используемые в песне аккорды можно найти в разделе Как брать аккорды. Аккорды для шестиструнной гитары. Другие песни можно найти на нашем сайте, воспользовавшись алфавитным указателем вверху страницы.


Слушать онлайн Dream Warriors


DokkenDream Warriors на Яндекс.Музыке


 
Ошибка в тексте? Выделите ошибку и нажмите Ctrl+Enter