TWILIGHT OF THE GODS
KEEPER OF THE SEVEN KEYS - PART I

  E B 

E---|----------------16-----|--19-----17h19p17p16------------17--|------
B---|---/17------17---------|----------------------19------------|------
G---|--------16-------------|------------------------------------|------
D---|-----------------------|------------------------------------|------
A---|-----------------------|------------------------------------|------
E---|-----------------------|------------------------------------|------
 
  C# G# 

E---/21-----22^--22^--21--|----------------------------------17h19------
B-------------------------|-----21-----------------------17-------------
G-------------------------|---------------------------------------------
D-------------------------|---------------------------------------------
A-------------------------|---------------------------------------------
E-------------------------|---------------------------------------------

  E 

E---p1716------|--16------16-----17-----19-----19^--19-----------------
B-----------17--|------17-----------------------------------------------
G---------------|-------------------------------------------------------
D---------------|-------------------------------------------------------
A---------------|-------------------------------------------------------
E---------------|-------------------------------------------------------

  A G# 

E---------|-----21-----------------------22^--22^--19-----||---19^------
B---------|-----------------------------------------------||------------
G---------|-----------------------------------------------||*-----------
D---------|-----------------------------------------------||*-----------
A---------|-----------------------------------------------||------------
E---------|-----------------------------------------------||------------


  Rhythm Fig 1 (19 is intro only) We've 

E-------------------------------------------------------||--------------
B-------------------------------------------------------||--------------
G------------------------------------------------------*||--------------
D------------------------------------------------------*||--------------
A------4-----4--4--4-----4--4--4-----4--4--4-----4--4---||--------------
E------2-----2--2--2-----2--2--2-----2--2--2-----2--2---||--------------


  Thrown away... (Repeat Gallup pattern until bridge) 

E---------------------------------------------------|-------------------
B---------------------------------------------------|-------------------
G---------------------------------------------------|-------------------
D---9-----9--9--9-----9--9--9-----9--9--9-----9--9--|-----9-------------
A---7-----7--7--7-----7--7--7-----7--7--7-----7--7--|-----7-------------
E---0-----0--0--0-----0--0--0-----0--0--0-----0--0--|-----0-------------


  Controlling,,, We have... 

E------------------------|----------------------------------------------
B------------------------|----------------------------------------------
G------------------------|----------------------------------------------
D------------------------|----------------------------------------------
A------------------------|----------------------------------------------
E------------------------|----------------------------------------------


E------------|-------------------------------|----------------------------
B------------|-------------------------------|----------------------------
G------------|-------------------------------|----------------------------
D------------|-5--7--------------------------|--4-----4--4--4-----4--4----
A------------|-3--5--------------------------|--2-----2--2--2-----2--2----
E------------|-------------------------------|----------------------------

  
E---------------------------|--------------------------------------------
B---------------------------|--------------------------------------------
G---------------------------|--------------------------------------------
D---4-----4--4--4-----4--4--|--------------------------------------------
A---2-----2--2--2-----2--2--|--2-----3-----2-----------2-----------------
E---------------------------|--------------------5-----------5-----3--2--


  BRIDGE This is 2 guitars 

E---------|--||---------------------------------------------------------
B---------|--||---------------------------------------------------------
G---------|--||*--------------------------------------------------------
D---------|--||*-----3-----------------------3--------------------------
A---------|--||------5-----5--5--5--5--5--5--5-----5--5--5--5--5--5-----
E---------|--||---------------------------------------------------------


E---|--------------------------------------------|----------------------
B---|--------------------------------------------|----------------------
G---|--------------------------------------------|----------------------
D---|--3--------------------------3-----5-----7--|----------------------
A---|--5-----5--5--5--5--5--5-----5-----7-----8--|----------------------
E---|--------------------------------------------|----------------------

  Its like the main riff of Eagle Fly Free 

E------------------------------------------------------|----------------
B------------------------------------------------------|----------------
G------------------------------------------------------|----------------
D---7--------------------------7-----------------------|--2-------------
A---8-----8--8--8--8--8--8-----8-----8--8--8--8--8--8--|--3-------------
E------------------------------------------------------|----------------

  (Experiment with diff patterns) 3x 

E----------------------------------------------------------||-----------
B----------------------------------------------------------||-----------
G---------------------------------------------------------*||-----3-----
D---------------------2-----------------------------------*||-----3-----
A---3--3--3--3--3--3--3-----3--3--3--3--3--3---------------||-----1-----
E----------------------------------------------------------||-----------

  2 gtrs 

E------------------------------------------------------|----------------
B------------------------------------------------------|----------------
G------------------------------------------------------|----------------
D------------------------------------------------------|----------------
A------------------------------------------------------|--5-----7-------
E------------------------------------------------------|--6-----8-------
  

E--------------------------|--------------------------------------------
B--------------------------|--------------------------------------------
G--------------------------|--------------------------------------------
D--------------------------|--------------------------------------------
A---8------8------7-----5--|--4-----------------------------------------
E---10-----10-----8-----6--|--5-----------------------------------------


  End Rhy Fig 1 Pre Chorus 

E---|-----------------|-----------|-----------------------------|-------
B---|-----------------|-----------|-----------------------------|-------
G---|-----------------|-----------|-----------------------------|-------
D---|-----------------|-----------|--4-------0--2--4------------|-------
A---|-----4--2--0--2--|-----------|--2-------2--4--5------------|-------
E---|-----5--3--1--0--|-----------|-----------------------------|-------
  

  night 

E---------------|--------------------------------|----------------------
B---------------|--------------------------------|----------------------
G---------------|--------------------------------|----------------------
D---------------|--------------------------------|-----------0--2--4----
A---------------|-----5--------------------------|-----------2--4--5----
E---------------|-----3--------------------------|----------------------
  

E---------|--------------------------------|----------------------------
B---------|--------------------------------|----------------------------
G---------|--------------------------------|----------------------------
D---------|--2-----------------------------|----------------------------
A---------|--0-----------------------------|-----------------4--5--7----
E---------|--------------------------------|-----------------5--7--9----


  Holy wars in the sky 

E---|-----------------|-----------------|--------------|----------------
B---|-----------------|-----------------|--------------|----------------
G---|-----------------|-----------------|--------------|----------------
D---|--4--------------|-----------------|--4-----------|-----------0----
A---|--2--------------|--------4--2--4--|--2-----------|-----------2----
E---|-----------------|--------5--3--2--|--------------|----------------


  CHORUS 

E---------|-----------------------------------------|-------------------
B---------|-----------------------------------------|-------------------
G---------|-----------------------------------------|-------------------
D---2--4--|-----------------------------------------|--7----------------
A---4--5--|--5--------------------------------------|--5----------------
E---------|--3--------------------------------------|-------------------


E------|-----------------------------|----------------------------------
B------|-----------------------------|----------------------------------
G------|-----------------------------|----------------------------------
D------|-----------------------------|--4-------------------------------
A------|--7--------------------------|--2-------------------------------
E------|--5--------------------------|----------------------------------

  Another... 

E---|--------------------------------------------|----------------------
B---|--------------------------------------------|----------------------
G---|--------------------------------------------|----------------------
D---|--------------------------------------------|--7-------------------
A---|-----4--------------------------------------|--5-------------------
E---|-----2--------------------------------------|----------------------

  
 but the 

E------------|-----------------------------|----------------------------
B------------|-----------------------------|----------------------------
G------------|-----------------------------|----------------------------
D------------|-----------------------------|----------------------------
A------------|--7--------------------------|----------------------------
E------------|--5--------------------------|----------------------------

  twilight soon will... 

E---------------------------------------------|--|--------||------------
B---------------------------------------------|--|--------||------------
G---------------------------------------------|--|--------||*-----------
D---------------------------------------------|--|--------||*-----------
A---5-----------------------------4-----------|--|--------||------------
E---3-----------------------------2-----------|--|--------||------------
  

  1rst solo rhythm 

E------------------------|--------------------|--------------|----------
B------------------------|--------------------|--------------|----------
G------------------------|--------------------|--------------|----------
D---9--------------------|--------------------|-----5--------|--7-------
A---7--------------------|--------------------|-----3--------|--5-------
E---0--------------------|--------------------|--------------|----------
  

  Harmony part Gtr 1 

E---||------------------------------------------------------|-----------
B---||---------8p5p0h5-----8p5p0h5-----8p5p0h5-----8p5p0h4--|--7p4------
G---||*-----------------------------------------------------|-----------
D---||*-----------------------------------------------------|-----------
A---||------------------------------------------------------|-----------
E---||------------------------------------------------------|-----------
  
  
E---------------------------------------------|-------------------------
B---p0h4-----7p4p0h4-----7p4p0h4-----7p4p0h7--|--10p7p0h7-----10p7------
G---------------------------------------------|-------------------------
D---------------------------------------------|-------------------------
A---------------------------------------------|-------------------------
E---------------------------------------------|-------------------------
  

E-----------------------------------|-----------------------------------
B---p0h7-----10p7p0h7-----10p7p0h5--|--8p5p0h5-----8p5p0h4h7-----0------
G-----------------------------------|-----------------------------------
D-----------------------------------|-----------------------------------
A-----------------------------------|-----------------------------------
E-----------------------------------|-----------------------------------


E-------------------|---------------------------------------------------
B---h4h7-----0h4h7--|--0h4h7-----0h5h8--0h5h8-----0h4h7-----0h4h7-------
G-------------------|---------------------------------------------------
D-------------------|---------------------------------------------------
A-------------------|---------------------------------------------------
E-------------------|---------------------------------------------------
  

  * The 058 is faster than the 047 on last 

E-----------||-----||---------------------------------------------------
B---0h4h7---||-----||------12--0--10--0--8--0--12--0--10--0--8--0--7----
G----------*||-----||*--------------------------------------------------
D----------*||-----||*--------------------------------------------------
A-----------||-----||---------------------------------------------------
E-----------||-----||---------------------------------------------------


  measure (if you listen to the song, you'll 

E-------------|---------------------------------------------------------
B---0--10--0--|--8--0--7--0--5--0--4--0--5--0--7--0--4------------------
G-------------|---------------------------------------------------------
D-------------|---------------------------------------------------------
A-------------|---------------------------------------------------------
E-------------|---------------------------------------------------------
  
  hear this) 

E------|-------------------------------------------------------|--------
B------|--12--0--10--0--8--0--12--0--10--0--8--0--7--0--10--0--|--8-----
G------|-------------------------------------------------------|--------
D------|-------------------------------------------------------|--------
A------|-------------------------------------------------------|--------
E------|-------------------------------------------------------|--------
  

E-------------------------------------------/12---------------||--------
B---0--7--0--5--0--4--0--5------------------------------------||--------
G------------------------------------------------------------*||--------
D------------------------------------------------------------*||--------
A-------------------------------------------------------------||--------
E-------------------------------------------------------------||--------

  Go to 2nd solo 

E------------------------------------------------------||---------------
B------------------------------------------------------||---12p8p0------
G------------------------------------------------------||*--------------
D------------------------------------------------------||*--------------
A------------------------------------------------------||---------------
E------------------------------------------------------||---------------

  Harmony part Gtr 2 

E-------------------------|---------------------------------------------
B---h8--------------------|-----10p7p0h7--------------------------------
G-------------------------|---------------------------------------------
D-------------------------|---------------------------------------------
A-------------------------|---------------------------------------------
E-------------------------|---------------------------------------------

  The same pattern as Gtr1 but with these 

E---------|--------------------------------|----------------------------
B---------|-----13p10p0h10-----------------|-----12p8p0h8---------------
G---------|--------------------------------|----------------------------
D---------|--------------------------------|----------------------------
A---------|--------------------------------|----------------------------
E---------|--------------------------------|----------------------------
  
  notes 

E-------------------------------------|---------------------------------
B------0p7--10-----0p7p10-----0p7p10--|-----0---------------------------
G-------------------------------------|---------------------------------
D-------------------------------------|---------------------------------
A-------------------------------------|---------------------------------
E-------------------------------------|---------------------------------
 
  Like Gtr 1 0 8 12 is faster than 0 7 10 

E-----------------------------------------------------------------------
B---p7p10-----------0p8p12--0p8p12--------0p7p10-----0p7p10-----0p7-----
G-----------------------------------------------------------------------
D-----------------------------------------------------------------------
A-----------------------------------------------------------------------
E-----------------------------------------------------------------------
  

E---------------||--------||--------------------------------------------
B---p10---------||--------||---15--0--13--0--12--0--15--0--13--0--12----
G--------------*||--------||*-------------------------------------------
D--------------*||--------||*-------------------------------------------
A---------------||--------||--------------------------------------------
E---------------||--------||--------------------------------------------

  
E-----------------|-----------------------------------------------------
B---0--10--13--0--|--12--0--10--0--8--0--7--0--8--0--10--0--7-----------
G-----------------|-----------------------------------------------------
D-----------------|-----------------------------------------------------
A-----------------|-----------------------------------------------------
E-----------------|-----------------------------------------------------
  

E------------|----------------------------------------------------------
B------------|--15--0--13--0--12--0--15--0--13--0--12--0--10--0--13-----
G------------|----------------------------------------------------------
D------------|----------------------------------------------------------
A------------|----------------------------------------------------------
E------------|----------------------------------------------------------
 

E------|------------------------------------------15---||---------------
B---0--|--12--0--10--0--8--0--7--0--8------------/-----||---------------
G------|----------------------------------------------*||---------------
D------|----------------------------------------------*||---------------
A------|-----------------------------------------------||---------------
E------|-----------------------------------------------||---------------
  
  Go to 2nd solo 

E------------------------------------------------------|----------------
B------------------------------------------------------|----------------
G------------------------------------------------------|----------------
D------------------------------------------------------|----------------
A------------------------------------------------------|----------------
E------------------------------------------------------|----------------
  
  2ND SOLO (Rhythm) 

E------------|-----------|--------------------|-----------------|-------
B------------|-----------|--------------------|-----------------|-------
G------------|-----------|--------------------|-----------------|-------
D------------|-----9-----|-----------------9--|--------------9--|-------
A------7-----|-----7-----|--------7--------7--|--7-----------7--|--9----
E------5-----|-----0-----|--------5-----------|--5--------------|--7----
  

  Play Pre-Chorus and Chorus, then OUTRO 

E------------------|--|-------------------------------------------------
B------------------|--|-------------------------------------------------
G------------------|--|-------------------------------------------------
D------------------|--|-------------------------------------------------
A------------------|--|-------------------------------------------------
E------------------|--|-------------------------------------------------
  

E------||----------------------------------|-----------------|----------
B------||----------------------------------|-----------------|----------
G------||*---------------------------------|-----------------|----------
D------||*--9-----------------5--7--9------|--5--------------|-----7----
A------||---7-----------------7--9--10-----|--3--------------|-----5----
E------||----------------------------------|-----------------|----------
  
  Oh...... Oh......Oh oh oh 

E----------------------------||--------------------------|--------------
B----------------------------||--------------------------|--------------
G---------------------------*||--------------------------|--------------
D---------------------------*||-----9--7-----------9--7--|--------------
A----------------------------||-----7--5-----------7--5--|--------------
E----------------------------||--------------------------|--------------
  

E------------|----------------------------------------------------------
B------------|----------------------------------------------------------
G------------|----------------------------------------------------------
D---9--7--9--|----------------------------------------------------------
A---7--5--7--|----------------------------------------------------------
E------------|----------------------------------------------------------


Текст, аккорды и табулатура для песни "Twilight Of The Gods", исполняет "Helloween".
Используемые в песне аккорды можно найти в разделе Как брать аккорды. Аккорды для шестиструнной гитары. Другие песни можно найти на нашем сайте, воспользовавшись алфавитным указателем вверху страницы.


Слушать онлайн Twilight of the Gods: Funeral March


Midnight ReapersTwilight of the Gods: Funeral March на Яндекс.Музыке


 
Ошибка в тексте? Выделите ошибку и нажмите Ctrl+Enter