Эх! Табу сваргинил за считанные минуты! Подобрал практически в уме т.ч. на
истину не претендует, но и для бытового музицырования вполне подходит!:)

Строй гитары нормальный.

|---------0---5---------|
|-----7-----7-----|-------0-1-0-----|
|---7---7---------|-----0-------0---|
|-0---------------|---2-----------2-|
----0-|-3---------------|
------------|

|-------2-3-2-----------|
|-----3-------3---|-------1~--------|
|---2-----------2-|-----0-----------|
|-0---------------|---2-------------|
------|-3---------------|
------------|

           I saw a million people cry 
|---------0---5---------|
|-----7-----7-----|-------0-1-0-----|
|---7---7---------|-----0-------0---|
|-0---------------|---2-----------2-|
----0-|-3---------------|
------------|

           I heard so little laughter 
|-------2-3-2-----------|
|-----3-------3---|-------(1)-------|
|---2-----------2-|-----0-----------|
|-0---------------|---2-------------|
------|-3---------------|
------------|

         Tasted so many tears of mine 
|---------0---5---------|
|-----7-----7-----|-------0-1-0-----|
|---7---7---------|-----0-------0---|
|-0---------------|---2-----------2-|
----0-|-3---------------|
------------|

         Still didn´t feel good after 
|-------2-3-2-----------|
|-----3-------3---|------(1)--------|
|---2-----------2-|-----0-----------|
|-0---------------|---2-------------|
------|-3---------------|
------------|

Sometimes I just wish To turn back time 
|------(0)-------(0)----------(0)---|
|------(0)-------(0)----------(0)---|
|-----0---------0-------------(2)---|
|---2---------0---------------(2)---|
------------------(0)---|
|-0---------3-----------------------|

But if I could    there is no world 
------------|
|-------0---------|------(0)----(0)-|
|-----0---0-------|-----2----2------|
|---0-------0---0-|---2--------2----|
------|-0---------------|
|-3-----------3---------|

No world that I   just want to see   
0-----0-----|
|-------3-----3---|-------3-----3---|
|-----4---4-----4-|-----4---4-----4-|
|---4-------------|---4-------------|
|-2---------------|-2-----0---------|
------------|

In my mind 
------|(0)--------------|
|------(0)--------|(0)--------------|
|-----0-----------|(0)--------------|
|---0-------------|(2)--------------|
------|(2)--------------|
|-3---------------|(0)--------------|

And time      goes by   
|(2)---2----------0-----|
|(3)-----3--------|(3)----------3---|
|(2)------(2)-----|(3)------------3-|
|(0)-0------------|(3)------3-------|
------|(1)----1---------|
------------|

Passing  by    my  eyes 
|(2)---2----------0-----|
|(3)-----3--------|(3)----------3---|
|(2)------(2)-----|(3)------------3-|
|(0)-0------------|(3)------3-------|
------|(1)----1---------|
------------|

And I still       wait here for    
|-------(0)-------|(0)------0-------|
|-------(3)-------|(1)--------1-----|
|------3(3)-------|(2)---------(2)--|
|----3--(3)-------|(2)--------------|
|(1)----(1)-------|(0)--------------|
------------|

 better
|-2---5--(8)------------|
|-3---7--(6)------------|
|-2---7--(5)------------|
|-0---0--(0)------------|
------------|
------------|

Time      goes     by 
|(2)---2----------0-----|
|(3)-----3--------|(3)----------3---|
|(2)------(2)-----|(3)------------3-|
|(0)-0------------|(3)------3-------|
------|(1)----1---------|
------------|

Deaf to pain  and  cries  
|(2)---2----------0-----|
|(3)-----3--------|(3)----------3---|
|(2)------(2)-----|(3)------------3-|
|(0)-0------------|(3)------3-------|
------|(1)----1---------|
------------|

And I still       wait  here     for    
|-------(0)-------|(0)------0-------|
|-------(3)-------|(1)--------1-----|
|------3(3)-------|(2)---------(2)--|
|----3--(3)-------|(2)--------------|
|(1)----(1)-------|(0)--------------|
------------|

 better
|-2---5--(8)------------|
|-3---7--(6)------------|
|-2---7--(5)------------|
|-0---0--(0)------------|
------------|
------------|

 For better 
|-2---5--(8)------------|
|-3---7--(6)------------|
|-2---7--(5)------------|
|-0---0--(0)------------|
------------|
------------|

But if I could    there is no world 
------------|
|-------0---------|------(0)----(0)-|
|-----0---0-------|-----2----2------|
|---0-------0---0-|---2--------2----|
------|-0---------------|
|-3-----------3---------|

No world that I   just want to see   
0-----0-----|
|-------3-----3---|-------3-----3---|
|-----4---4-----4-|-----4---4-----4-|
|---4-------------|---4-------------|
|-2---------------|-2-----0---------|
------------|

In my mind 
------|(0)--------------|
|------(0)--------|(0)--------------|
|-----0-----------|(0)--------------|
|---0-------------|(2)--------------|
------|(2)--------------|
|-3---------------|(0)--------------|


And time      goes by   
|(2)---2----------0-----|
|(3)-----3--------|(3)----------3---|
|(2)------(2)-----|(3)------------3-|
|(0)-0------------|(3)------3-------|
------|(1)----1---------|
------------|

Passing  by    my  eyes 
|(2)---2----------0-----|
|(3)-----3--------|(3)----------3---|
|(2)------(2)-----|(3)------------3-|
|(0)-0------------|(3)------3-------|
------|(1)----1---------|
------------|

And I still       wait here for    
|-------(0)-------|(0)------0-------|
|-------(3)-------|(1)--------1-----|
|------3(3)-------|(2)---------(2)--|
|----3--(3)-------|(2)--------------|
|(1)----(1)-------|(0)--------------|
------------|

 better
|-2---5--(8)------------|
|-3---7--(6)------------|
|-2---7--(5)------------|
|-0---0--(0)------------|
------------|
------------|

Time      goes     by 
|(2)---2----------0-----|
|(3)-----3--------|(3)----------3---|
|(2)------(2)-----|(3)------------3-|
|(0)-0------------|(3)------3-------|
------|(1)----1---------|
------------|

Deaf to pain  and  cries  
|(2)---2----------0-----|
|(3)-----3--------|(3)----------3---|
|(2)------(2)-----|(3)------------3-|
|(0)-0------------|(3)------3-------|
------|(1)----1---------|
------------|

And I still       wait  here     for    
|-------(0)-------|(0)------0-------|
|-------(3)-------|(1)--------1-----|
|------3(3)-------|(2)---------(2)--|
|----3--(3)-------|(2)--------------|
|(1)----(1)-------|(0)--------------|
------------|

 better
|-2---5--(8)------------|
|-3---7--(6)------------|
|-2---7--(5)------------|
|-0---0--(0)------------|
------------|
------------|

 For better 
|-2---5--(8)------------|
|-3---7--(6)------------|
|-2---7--(5)------------|
|-0---0--(0)------------|
------------|
------------|
       
                       Forever
|-2---5--(8)------|-8------/10------|
|-3---7--(6)------|---6-------(8)---|
|-2---7--(5)------|-----5-------(7)-|
|-0---0--(0)------------|
------------|
------------|


Все! Хепи енд!:)
by DiAnno 2001


Текст, аккорды и табулатура для песни "Time Goes By", исполняет "Helloween".
Используемые в песне аккорды можно найти в разделе Как брать аккорды. Аккорды для шестиструнной гитары. Другие песни можно найти на нашем сайте, воспользовавшись алфавитным указателем вверху страницы.


 
Ошибка в тексте? Выделите ошибку и нажмите Ctrl+Enter