Title: I can
Band: Helloween
Album: Better than raw

Transcribed by Franck Hetroy ([email protected])

First ten measures: nothing
Then:

intro:

||---------------------------|-----------|-----------|-----------|-----------|-----------|
||---------------------------|-----------|-----------|-----------|-----------|-----------|
||-----------3-5-----------3-|-3/(9)(3)-|-3/(9)(3)-|-3/(9)(3)-|-3/(9)(3)-|-3/(9)(3)-|
||-5---3-5---------5---3-----|-----------|-----------|-----------|-----------|-----------|

chorus:

|---------------|-----------------|-----------------|-----------------|-----------------|-----------------|-----------------|-----------------|
|---------------|-----------------|-----------------|-----------------|-----------------|-----------------|-----------------|-----------------|
|-------3-------|---------1-------|---------3-------|-----------------|-0-0-0-0-0-0-0-0-|-0-0-0-0-0-0-0-0-|-0-0-0-0-0-0-0-0-|-0-0-0-0-0-0-0-0-|
|-5---5---5-5-5-|---3---3---3-3-3-|-5h6-6-6---6-6-6-|-3-3-3-3-3-3-3-3-|-----------------|-----------------|-----------------|-----------------|

verse:

|-----------------|-----------------|-----------------|-----------------|
|-----------------|-----------------|-----------------|-----------------|
|-0-0-0-0-0-0-0-0-|-0-0-0-0-0-0-0-0-|-0-0-0-0-0-0-0-0-|-0-------3-------|
|-----------------|-----------------|-----------------|---3-3-3---4-4-4-|

|-----------------|-----------------|-----------------|-----------------|
|-----------------|-----------------|-----------------|-----------------|
|-0-0-0-0-0-0-3-0-|-0-0-0-0-0-0-3-0-|-----------------|-----------------|
|-----------------|-----------------|-4-4-4-4-4-4-4-4-|-3-3-3-3-4-4-4-4-|

|-----------------|-----------------|-----------------|-----------------|
|-----------------|-----------------|-----------------|-----------------|
|-0-0-0-0-0-0-0-0-|-0-0-0-0-0-0-0-0-|-----------------|-----------------|
|-----------------|-----------------|-4-4-4-4-4-4-4-4-|-3-3-3-3-4-4-4-4-|

|-----------------|-----------------|-----------------|-----------------|
|-----------------|-----------------|-----------------|-----------------|
|-0-0-0-0-0-0-0-0-|-0-0-0-0-0-0-0-0-|-----------------|-----------------|
|-----------------|-----------------|-4-4-4-4-4-4-4-4-|-3-3-3-3-4-4-4-4-|

pre chorus:

|---------------|-----------------|---------------|-----------------|---------------|-----------------|
|-------------4-|---4---1-4-1-----|---------------|-----------------|-------------1-|---1-----1-------|
|-2p1h2-4-4-2---|-------------4-2-|-2p1h2-4-4-2-4-|---4---2-4-2-4-2-|-2p1h2-4-4-2---|-------4---4-2-4-|
|---------------|-----------------|---------------|-----------------|---------------|-----------------|

at the speed of light !

bridge:

|---------------|---------------|---------------|---------------|
|---------------|---------------|---------------|---------------|
|-4----2----0---|-4----2----0---|-4----2----0---|-4----2----0---|
|---------------|---------------|---------------|---------------|

during the guitar solo:

|-----------------|-----------------|-----------------|-----------------|
|-----------------|-----------------|-----------------|-----------------|
|-4-4-4-4-4-4-4-4-|-1-1-1-1-1-1-1-1-|-2-2-2-2-2-2-2-2-|-----------------|
|-----------------|-----------------|-----------------|-4-4-4-4-4-4-4-4-|

|-----------------|-----------------|-----------------|-----------------|
|-----------------|-----------------|-----------------|-1-3-4-3-1-1-1-1-|
|-----------------|-1-1-1-1-1-1-1-1-|-----------------|-----------------|
|-3-3-3-3-3-3-3-3-|-----------------|-3-3-3-3-3-3-3-3-|-----------------|

|-----------------|-----------------|-----------------|-----------------|
|-----------------|-----------------|-----------------|-----------------|
|-----------------|-1-1-1-1-1-1-1-1-|-2-2-2-2-2-2-2-2-|-4-4-4-4-4-4-4-4-|
|-3-3-3-3-3-3-3-3-|-----------------|-----------------|-----------------|

|-----------------|-----------------|-----------------|
|-1-1-1-1-1-1-1-1-|-1-1-1-1-1-1-1-1-|-1-2-4-4-4-4-4-4-|
|-----------------|-----------------|-----------------|
|-----------------|-----------------|-----------------|


SONG STRUCTURE:
--------------

intro
chorus (3 times)
verse
pre-chorus (2 times)
chorus (3 times)
verse
pre-chorus (2 times)
chorus (3 times)
bridge
guitar solo
pre-chorus (2 times)
chorus (3 times)
bridge (except the last measure)

I'm not sure about the bridge.

Comments and suggestions are welcome:
-> please e-mail me: [email protected]


Текст, аккорды и табулатура для песни "I Can", исполняет "Helloween".
Используемые в песне аккорды можно найти в разделе Как брать аккорды. Аккорды для шестиструнной гитары. Другие песни можно найти на нашем сайте, воспользовавшись алфавитным указателем вверху страницы.


Слушать онлайн If I Could Fly


HelloweenIf I Could Fly на Яндекс.Музыке


 
Ошибка в тексте? Выделите ошибку и нажмите Ctrl+Enter