YOU, ME AND A WHOLE LOTTA FUNK 45'S
Hell Is For Heroes
Transcribed by Stephen Jones 

{NOTE: Both Tom and Will's guitars are almost always tuned to DADGBE ('drop D' tuning)!}


[Will solo]
e|---------------------|------------------------------|
B|---------------------|------------------------------|
G|---------------------|------------------------------|
D|-8-8--8-8--8-8-8-8-8-|-10-10--10-10--10-10-10-10-10-|
A|-6-6--6-6--6-6-6-6-6-|--8--8---8--8---8--8--8--8--8-|
D|-6-6--6-6--6-6-6-6-6-|--8--8---8--8---8--8--8--8--8-|

e|-----------------------|-----------------------|
B|-----------------------|-----------------------|
G|-----------------------|-----------------------|
D|-8-8-8--7-7--7-7-7-7-7-|-7-7-7--5-5--5-5-5-5-5-|
A|-0-0-0--0-0--0-0-0-0-0-|-5-5-5--5-5--5-5-5-5-5-|
D|-0-0-0--0-0--0-0-0-0-0-|-5-5-5--5-5--5-5-5-5-5-|


[Will's part - played twice]
e|-------------------------|-------------------------|
B|-------------------------|-------------------------|
G|-------------------------|-------------------------|
D|-6-x-x-x-x-6-x-x-x-x-x-x-|-8-x-x-x-x-8-x-x-x-x-x-x-|
A|-6-x-x-x-x-6-x-x-x-x-x-x-|-8-x-x-x-x-8-x-x-x-x-x-x-|
D|-6-x-x-x-x-6-x-x-x-x-x-x-|-8-x-x-x-x-8-x-x-x-x-x-x-|

e|-2---------2-------------|-------------------------|
B|-3---------3-------------|-------------------------|
G|-2---------2-------------|-------------------------|
D|-0-x-x-x-x-0-x-x-x-x-x-x-|-5-x-x-x-x-5-x-x-x-x-x-x-|
A|-0-x-x-x-x-0-x-x-x-x-x-x-|-5-x-x-x-x-5-x-x-x-x-x-x-|
D|-0-x-x-x-x-0-x-x-x-x-x-x-|-5-x-x-x-x-5-x-x-x-x-x-x-|

[Tom's part - played twice]
e|------------------------------|------------------------------|
B|------------------------------|------------------------------|
G|-15-x-x-x-x-15-x-x-x-x-15-x-x-|-15-x-x-x-x-15-x-x-x-x-15-x-x-|
D|--x-x-x-x-x--x-x-x-x-x--x-x-x-|--x-x-x-x-x--x-x-x-x-x--x-x-x-|
A|-13-x-x-x-x-13-x-x-x-x-13-x-x-|-13-x-x-x-x-13-x-x-x-x-13-x-x-|
D|------------------------------|------------------------------|

e|---------------------------------------|---------------------------------------|
B|---------------------------------------|---------------------------------------|
G|-15--15-15-15-15--14-14-14-14-14-14-14-|-14--14-14-14-14--12-12-12-12-12-12-12-|
D|--x---x--x--x--x---x--x--x--x--x--x--x-|--x---x--x--x--x---x--x--x--x--x--x--x-|
A|-13--13-13-13-13--12-12-12-12-12-12-12-|-12--12-12-12-12--10-10-10-10-10-10-10-|
D|---------------------------------------|---------------------------------------|


[both guitars]
e|-------------------------|-------------------------|
B|-------------------------|-------------------------|
G|-------------------------|-------------------------|
D|-6-x-x-x-x-6-x-x-x-x-x-x-|-8-x-x-x-x-8-x-x-x-x-x-x-|
A|-6-x-x-x-x-6-x-x-x-x-x-x-|-8-x-x-x-x-8-x-x-x-x-x-x-|
D|-6-x-x-x-x-6-x-x-x-x-x-x-|-8-x-x-x-x-8-x-x-x-x-x-x-|
     See   my    bloodied   hands,   my    battered

e|-2---------2-------------|-------------------------|
B|-3---------3-------------|-------------------------|
G|-2---------2-------------|-------------------------|
D|-0-x-x-x-x-0-x-x-x-x-x-x-|-5-x-x-x-x-5-x-x-x-x-x-x-|
A|-0-x-x-x-x-0-x-x-x-x-x-x-|-5-x-x-x-x-5-x-x-x-x-x-x-|
D|-0-x-x-x-x-0-x-x-x-x-x-x-|-5-x-x-x-x-5-x-x-x-x-x-x-|
     limbs,    carry  the   weight   of   unforgiven

e|-------------------------|-------------------------|
B|-------------------------|-------------------------|
G|-------------------------|-------------------------|
D|-6-x-x-x-x-6-x-x-x-x-x-x-|-8-x-x-x-x-8-x-x-x-x-x-x-|
A|-6-x-x-x-x-6-x-x-x-x-x-x-|-8-x-x-x-x-8-x-x-x-x-x-x-|
D|-6-x-x-x-x-6-x-x-x-x-x-x-|-8-x-x-x-x-8-x-x-x-x-x-x-|
   sins,    show   me   the  way,    give   me   a

e|-2---------2-------------|-------------------------|
B|-3---------3-------------|-------------------------|
G|-2---------2-------------|-------------------------|
D|-0-x-x-x-x-0-x-x-x-x-x-x-|-5-x-x-x-x-5-x-x-x-x-x-x-|
A|-0-x-x-x-x-0-x-x-x-x-x-x-|-5-x-x-x-x-5-x-x-x-x-x-x-|
D|-0-x-x-x-x-0-x-x-x-x-x-x-|-5-x-x-x-x-5-x-x-x-x-x-x-|
     sign,    my   broken  faith, you'll never mend...


[Will's part]   
e|-----------|-----------|-----------|-----------------------|
B|-----------|-----------|-----------|-----------------------|
G|--3--3--3--|--3--3--3--|--3--3--3--|-----------------------|
D|--1--1--1--|--3--3--3--|--1--1--1--|-0-0-5-0-5-x-x-x-x-x-x-|
A|--1--1--1--|--1--1--1--|--1--1--1--|-0-0-5-0-5-x-x-x-x-x-x-|
D|--1--1--1--|-----------|--1--1--1--|-0-0-5-0-5-x-x-x-x-x-x-|
Here in your womb, I see the world slipping away,

e|-----------|-----------|-----------|-----------------------|-----------------------|
B|-----------|-----------|-----------|-----------------------|-----------------------|
G|--3--3--3--|--3--3--3--|--3--3--3--|-----------------------|-----------------------|
D|--1--1--1--|--3--3--3--|--1--1--1--|-0-0-5-0-5-x-x-x-x-x-x-|-0-0-5-0-5-x-x-x-x-x-x-|
A|--1--1--1--|--1--1--1--|--1--1--1--|-0-0-5-0-5-x-x-x-x-x-x-|-0-0-5-0-5-x-x-x-x-x-x-|
D|--1--1--1--|-----------|--1--1--1--|-0-0-5-0-5-x-x-x-x-x-x-|-0-0-5-0-5-x-x-x-x-x-x-|
Out here in the cold, here I have grown, I'll start again...

[Tom's part]   
e|----------------|-----------|----------------|-----------------------|
B|----------------|-----------|----------------|-----------------------|
G|--7>8-7>8-7-5-3-|-7>8-7-5-3-|--7>8-7>8-7-5-3-|-----------------------|
D|----------------|-----------|----------------|-0-0-5-0-5-x-x-x-x-x-x-|
A|----------------|-----------|----------------|-0-0-5-0-5-x-x-x-x-x-x-|
D|----------------|-----------|----------------|-0-0-5-0-5-x-x-x-x-x-x-|
Here in your womb, I see the world slipping away,

e|----------------|-----------|----------------|
B|----------------|-----------|----------------|
G|--7>8-7>8-7-5-3-|-7>8-7-5-3-|--7>8-7>8-7-5-3-|
D|----------------|-----------|----------------|
A|----------------|-----------|----------------|
D|----------------|-----------|----------------|
Out here in the cold, here I have grown, I'll start

e|-----------------------|-----------------------|
B|-----------------------|-----------------------|
G|-----------------------|-----------------------|
D|-0-0-5-0-5-x-x-x-x-x-x-|-0-0-5-0-5-x-x-x-x-x-x-|
A|-0-0-5-0-5-x-x-x-x-x-x-|-0-0-5-0-5-x-x-x-x-x-x-|
D|-0-0-5-0-5-x-x-x-x-x-x-|-0-0-5-0-5-x-x-x-x-x-x-|
  again...


[both guitars]
e|-------------------------|-------------------------|
B|-------------------------|-------------------------|
G|-------------------------|-------------------------|
D|-6-x-x-x-x-6-x-x-x-x-x-x-|-8-x-x-x-x-8-x-x-x-x-x-x-|
A|-6-x-x-x-x-6-x-x-x-x-x-x-|-8-x-x-x-x-8-x-x-x-x-x-x-|
D|-6-x-x-x-x-6-x-x-x-x-x-x-|-8-x-x-x-x-8-x-x-x-x-x-x-|
      Tell  me  if   you  care,   if  you  care  for

e|-2---------2-------------|-------------------------|
B|-3---------3-------------|-------------------------|
G|-2---------2-------------|-------------------------|
D|-0-x-x-x-x-0-x-x-x-x-x-x-|-5-x-x-x-x-5-x-x-x-x-x-x-|
A|-0-x-x-x-x-0-x-x-x-x-x-x-|-5-x-x-x-x-5-x-x-x-x-x-x-|
D|-0-x-x-x-x-0-x-x-x-x-x-x-|-5-x-x-x-x-5-x-x-x-x-x-x-|
     me,  soaked  in  your   stare  I thought I could

e|-------------------------|-------------------------|
B|-------------------------|-------------------------|
G|-------------------------|-------------------------|
D|-6-x-x-x-x-6-x-x-x-x-x-x-|-8-x-x-x-x-8-x-x-x-x-x-x-|
A|-6-x-x-x-x-6-x-x-x-x-x-x-|-8-x-x-x-x-8-x-x-x-x-x-x-|
D|-6-x-x-x-x-6-x-x-x-x-x-x-|-8-x-x-x-x-8-x-x-x-x-x-x-|
   see,     my    bitter   trust,         choking on 

e|-2---------2-------------|-------------------------|
B|-3---------3-------------|-------------------------|
G|-2---------2-------------|-------------------------|
D|-0-x-x-x-x-0-x-x-x-x-x-x-|-5-x-x-x-x-5-x-x-x-x-x-x-|
A|-0-x-x-x-x-0-x-x-x-x-x-x-|-5-x-x-x-x-5-x-x-x-x-x-x-|
D|-0-x-x-x-x-0-x-x-x-x-x-x-|-5-x-x-x-x-5-x-x-x-x-x-x-|
    air,      walking   on   ice,  jump  if  you dare...


[Will's part - Tom plays usual chorus part]   
e|-----------|-----------|-----------|-----------------------|
B|-----------|-----------|-----------|-----------------------|
G|--3--3--3--|--3--3--3--|--3--3--3--|-----------------------|
D|--1--1--1--|--3--3--3--|--1--1--1--|-0-0-5-0-5-x-x-x-x-x-x-|
A|--1--1--1--|--1--1--1--|--1--1--1--|-0-0-5-0-5-x-x-x-x-x-x-|
D|--1--1--1--|-----------|--1--1--1--|-0-0-5-0-5-x-x-x-x-x-x-|
Here in your womb, I see the world slipping away,

e|-----------|-----------|-----------|
B|-----------|-----------|-----------|
G|--3--3--3--|--3--3--3--|--3--3--3--|
D|--1--1--1--|--3--3--3--|--1--1--1--|
A|--1--1--1--|--1--1--1--|--1--1--1--|
D|--1--1--1--|-----------|--1--1--1--|
Out here in the cold, here I have grown, 


[Will's part]
e|-2-2--2-2--2-2-2-|-------------------|-2-2--2-2--2-2-2-|-------------------|
B|-3-3--3-3--3-3-3-|-------------------|-3-3--3-3--3-3-3-|-------------------|
G|-2-2--2-2--2-2-2-|-7-7--7-7--7-7-7-7-|-2-2--2-2--2-2-2-|-7-7--7-7--7-7-7-7-|
D|-0-0--0-0--0-0-0-|-5-5--5-5--5-5-5-5-|-0-0--0-0--0-0-0-|-5-5--5-5--5-5-5-5-|
A|-0-0--0-0--0-0-0-|-5-5--5-5--5-5-5-5-|-0-0--0-0--0-0-0-|-5-5--5-5--5-5-5-5-|
D|-0-0--0-0--0-0-0-|-5-5--5-5--5-5-5-5-|-0-0--0-0--0-0-0-|-5-5--5-5--5-5-5-5-|
I'll start again...

e|-----------------|-----------------|-----------------|-----------------|
B|-----------------|-----------------|-----------------|-----------------|
G|-4-4-4-4-4-4-4-4-|-4-4-4-4-4-4-4-4-|-4-4-4-4-4-4-4-4-|-4-4-4-4-4-4-4-4-|
D|-4-4-4-4-4-4-4-4-|-3-3-3-3-3-3-3-3-|-4-4-4-4-4-4-4-4-|-3-3-3-3-3-3-3-3-|
A|-2-2-2-2-2-2-2-2-|-2-2-2-2-2-2-2-2-|-2-2-2-2-2-2-2-2-|-2-2-2-2-2-2-2-2-|
D|-----------------|-----------------|-----------------|-----------------|
  I'll start again,  my God is dead,  I'll start again,  my God is dead...

[Tom's part]
e|------------------------|-----------------------|------------------------|-----------|
B|------------------------|-----------------------|------------------------|-----------|
G|-11-11--12-12--14-14-14-|-12-12-12--12-12-12-12-|-11-11--12-12--14-14-14-|-16>17-16--|
D|--x--x---x--x---x--x--x-|--x--x--x---x--x--x--x-|--x--x---x--x---x--x--x-|--x--x--x--|
A|--9--9--10-10--12-12-12-|-10-10-10--10-10-10-10-|--9--9--10-10--12-12-12-|-14>15-14--|
D|------------------------|-----------------------|------------------------|-----------|
I'll start again...

e|-------------------------|-------------------------|-------------------------|-------------------------|
B|-------------------------|-------------------------|-------------------------|-------------------------|
G|-11-11-11-11-11-11-11-11-|-10-10-10-10-10-10-10-10-|-10-10-10-10-10-10-10-10-|-10-10-10-10-10-10-10-10-|
D|--x--x--x--x--x--x--x--x-|--x--x--x--x--x--x--x--x-|--x--x--x--x--x--x--x--x-|--x--x--x--x--x--x--x--x-|
A|--9--9--9--9--9--9--9--9-|--8--8--8--8--8--8--8--8-|--9--9--9--9--9--9--9--9-|--8--8--8--8--8--8--8--8-|
D|-------------------------|-------------------------|-------------------------|-------------------------|
   I'll    start    again,    my    God    is   dead,  I'll    start    again,    my   God    is   dead...


[Will solo - switch to clean sound]
e|---------------------|------------------------------|-----------------------|
B|---------------------|------------------------------|-----------------------|
G|---------------------|------------------------------|-----------------------|
D|-8-8--8-8--8-8-8-8-8-|-10-10--10-10--10-10-10-10-10-|-8-8-8--7-7--7-7-7-7-7-|
A|-6-6--6-6--6-6-6-6-6-|--8--8---8--8---8--8--8--8--8-|-0-0-0--0-0--0-0-0-0-0-|
D|-6-6--6-6--6-6-6-6-6-|--8--8---8--8---8--8--8--8--8-|-0-0-0--0-0--0-0-0-0-0-|

[both guitars] - {heavy distortion on}
e|-------------|
B|-------------|
G|-------------|
D|-5-x-x-x-x-x-|
A|-5-x-x-x-x-x-|
D|-5-x-x-x-x-x-|


[Will's part - Tom plays same as in opening main riff]
e|-------------------------|-------------------------|
B|-------------------------|-------------------------|
G|-------------------------|-------------------------|
D|-6-x-x-x-x-6-x-x-x-x-x-x-|-8-x-x-x-x-8-x-x-x-x-x-x-|
A|-6-x-x-x-x-6-x-x-x-x-x-x-|-8-x-x-x-x-8-x-x-x-x-x-x-|
D|-6-x-x-x-x-6-x-x-x-x-x-x-|-8-x-x-x-x-8-x-x-x-x-x-x-|
     My     hands     are    tied    with    robust

e|-2---------2-------------|-------------------------|
B|-3---------3-------------|-------------------------|
G|-2---------2-------------|-------------------------|
D|-0-x-x-x-x-0-x-x-x-x-x-x-|-5-x-x-x-x-5-x-x-x-x-x-x-|
A|-0-x-x-x-x-0-x-x-x-x-x-x-|-5-x-x-x-x-5-x-x-x-x-x-x-|
D|-0-x-x-x-x-0-x-x-x-x-x-x-|-5-x-x-x-x-5-x-x-x-x-x-x-|
   steel,  God knows I've   tried  to  let  them  heal,

e|-------------------------|-------------------------|
B|-------------------------|-------------------------|
G|-------------------------|-------------------------|
D|-6-x-x-x-x-6-x-x-x-x-x-x-|-8-x-x-x-x-8-x-x-x-x-x-x-|
A|-6-x-x-x-x-6-x-x-x-x-x-x-|-8-x-x-x-x-8-x-x-x-x-x-x-|
D|-6-x-x-x-x-6-x-x-x-x-x-x-|-8-x-x-x-x-8-x-x-x-x-x-x-|
     I've    gi   -  ven       all     I    can 

e|-2---------2-------------|-------------------------|
B|-3---------3-------------|-------------------------|
G|-2---------2-------------|-------------------------|
D|-0-x-x-x-x-0-x-x-x-x-x-x-|-5-x-x-x-x-5-x-x-x-x-x-x-|
A|-0-x-x-x-x-0-x-x-x-x-x-x-|-5-x-x-x-x-5-x-x-x-x-x-x-|
D|-0-x-x-x-x-0-x-x-x-x-x-x-|-5-x-x-x-x-5-x-x-x-x-x-x-|
       take   from    my  -  self...


[Will - Tom plays usual chorus riff]
e|-----------|-----------|-----------|-----------------------|
B|-----------|-----------|-----------|-----------------------|
G|--3--3--3--|--3--3--3--|--3--3--3--|-----------------------|
D|--1--1--1--|--3--3--3--|--1--1--1--|-0-0-5-0-5-x-x-x-x-x-x-|
A|--1--1--1--|--1--1--1--|--1--1--1--|-0-0-5-0-5-x-x-x-x-x-x-|
D|--1--1--1--|-----------|--1--1--1--|-0-0-5-0-5-x-x-x-x-x-x-|
Here in your womb, I see the world slipping away,

e|-----------|-----------|-------------------|
B|-----------|-----------|-------------------|
G|--3--3--3--|--3--3--3--|---3---3---3-------|
D|--1--1--1--|--3--3--3--|---1---1---1-------|
A|--1--1--1--|--1--1--1--|---1---1---1-------|
D|--1--1--1--|-----------|---1---1---1-------|
Out here in the cold, here I have grown, I'll start again... 


[both guitars]
e|-----------------------|-----------------------|-----------------------|-----------||
B|-----------------------|-----------------------|-----------------------|-----------||
G|-----------------------|-----------------------|-----------------------|-----------||
D|-0-0-5-0-5-x-x-x-x-x-x-|-0-0-5-0-5-x-x-x-x-x-x-|-0-0-5-0-5-x-x-x-x-x-x-|-0-0-5-0-5-||
A|-0-0-5-0-5-x-x-x-x-x-x-|-0-0-5-0-5-x-x-x-x-x-x-|-0-0-5-0-5-x-x-x-x-x-x-|-0-0-5-0-5-||
D|-0-0-5-0-5-x-x-x-x-x-x-|-0-0-5-0-5-x-x-x-x-x-x-|-0-0-5-0-5-x-x-x-x-x-x-|-0-0-5-0-5-||
    I'll   start   again,   my   God   is   dead,   I'll   start   again,   my   God!


Текст, аккорды и табулатура для песни "You Me And A Whole Lotta Funk 45s", исполняет "Hell Is For Heroes".
Используемые в песне аккорды можно найти в разделе Как брать аккорды. Аккорды для шестиструнной гитары. Другие песни можно найти на нашем сайте, воспользовавшись алфавитным указателем вверху страницы.


 
Ошибка в тексте? Выделите ошибку и нажмите Ctrl+Enter