THIS IS WHY
Hell Is For Heroes
Transcribed by Stephen Jones 

{NOTE: Both Tom and Will's guitars are almost always tuned to DADGBE ('drop D' tuning)!}


{this riff continues all the way through until the bridge}
e|---------5-5-5-5-|---------1-1-1-1-|-2-2-2-2-2-2-2-1-|-----------------|
B|-2-2-2-2---------|-----------------|-----------------|-2-2-2-2-2-3-2-2-|
G|-----------------|-1-1-1-1---------|-----------------|-----------------|
D|-----------------|-----------------|-----------------|-----------------|
A|-----------------|-----------------|-----------------|-----------------|
D|-----------------|-----------------|-----------------|-----------------|


e|-----------------|-----------------|-----------------|-----------------|
B|-----------------|-----------------|-----------------|-----------------|
G|-2-2-2-2-2-2-2-2-|-6-6-6-6-6-6-6-6-|-2-2-2-2-2-2-2-2-|-2-2-2-2-2-2-2-2-|
D|-2-2-2-2-2-2-2-2-|-6-6-6-6-6-6-6-6-|-0-0-0-0-0-0-0-0-|-0-0-0-0-0-0-0-0-|
A|-0-0-0-0-0-0-0-0-|-4-4-4-4-4-4-4-4-|-0-0-0-0-0-0-0-0-|-0-0-0-0-0-0-0-0-|
D|-----------------|-----------------|-0-0-0-0-0-0-0-0-|-0-0-0-0-0-0-0-0-|
  (all of these chords are played muted)
                				        (stop muting...)
e|-----------------|-----------------|-----------------|-2-2-2-2-2-2-2-2-|
B|-----------------|-----------------|-----------------|-3-3-3-3-3-3-3-3-|
G|-2-2-2-2-2-2-2-2-|-6-6-6-6-6-6-6-6-|-2-2-2-2-2-2-2-2-|-2-2-2-2-2-2-2-2-|
D|-2-2-2-2-2-2-2-2-|-6-6-6-6-6-6-6-6-|-0-0-0-0-0-0-0-0-|-0-0-0-0-0-0-0-0-|
A|-0-0-0-0-0-0-0-0-|-4-4-4-4-4-4-4-4-|-0-0-0-0-0-0-0-0-|-0-0-0-0-0-0-0-0-|
D|-----------------|-----------------|-0-0-0-0-0-0-0-0-|-0-0-0-0-0-0-0-0-|
                                                                  


[Will - Tom continues playing intro riff]
{played four times}
e|-----------------|-----------------|-2-2-2-2-2-2-2-2-|-2-2-2-2-2-2-2-2-|
B|-----------------|-----------------|-3-3-3-3-3-3-3-3-|-3-3-3-3-3-3-3-3-|
G|-2-2-2-2-2-2-2-2-|-6-6-6-6-6-6-6-6-|-2-2-2-2-2-2-2-2-|-2-2-2-2-2-2-2-2-|
D|-2-2-2-2-2-2-2-2-|-6-6-6-6-6-6-6-6-|-0-0-0-0-0-0-0-0-|-0-0-0-0-0-0-0-0-|
A|-0-0-0-0-0-0-0-0-|-4-4-4-4-4-4-4-4-|-0-0-0-0-0-0-0-0-|-0-0-0-0-0-0-0-0-|
D|-----------------|-----------------|-0-0-0-0-0-0-0-0-|-0-0-0-0-0-0-0-0-|
1)God knows lead is  heavier   than    Gold,   a  rubber  doll  can still
2)breathe, it's not immune to growing  old,   it   isn't   hard   to   get
3)real,  when   you  know  it's just a dream,  we're  gonna  wipe  it  all
4)clean,   and let  the  parasities   roam...


[Both guitars]
e|-2-2-2-2-2-2-2-2-|-----------------|-2-2-2-2-2-2-2-2-|-----------------|
B|-3-3-3-3-3-3-3-3-|-----------------|-3-3-3-3-3-3-3-3-|-----------------|
G|-2-2-2-2-2-2-2-2-|-----------------|-2-2-2-2-2-2-2-2-|-----------------|
D|-0-0-0-0-0-0-0-0-|-----------------|-0-0-0-0-0-0-0-0-|-----------------|
A|-0-0-0-0-0-0-0-0-|-----------------|-0-0-0-0-0-0-0-0-|-----------------|
D|-0-0-0-0-0-0-0-0-|-----------------|-0-0-0-0-0-0-0-0-|-----------------|
                     Watch it unfold,                  from the front seat,

e|-2-2-2-2-2-2-2-2-|-----------------|-2-2-2-2-2-2-2-2-|-----------------|
B|-3-3-3-3-3-3-3-3-|-----------------|-3-3-3-3-3-3-3-3-|-----------------|
G|-2-2-2-2-2-2-2-2-|-----------------|-2-2-2-2-2-2-2-2-|-----------------|
D|-0-0-0-0-0-0-0-0-|-----------------|-0-0-0-0-0-0-0-0-|-----------------|
A|-0-0-0-0-0-0-0-0-|-----------------|-0-0-0-0-0-0-0-0-|-----------------|
D|-0-0-0-0-0-0-0-0-|-----------------|-0-0-0-0-0-0-0-0-|-----------------|
                     Got a star role,                   In the freak scene...


[Both guitars]
e|------------------------------|------------------------------|
B|------------------------------|------------------------------|
G|-4-4-4-4--4-4-4-4-4--4-4-4--4-|-2-2-2-2--2-2-2-2-2--2-2-2--2-|
D|-4-4-4-4--4-4-4-4-4--4-4-4--4-|-2-2-2-2--2-2-2-2-2--2-2-2--2-|
A|-2-2-2-2--2-2-2-2-2--2-2-2--2-|-0-0-0-0--0-0-0-0-0--0-0-0--0-|
D|------------------------------|------------------------------|
    There      goes      the       time,      it's      over

e|------------------------------|------------------------------|
B|------------------------------|------------------------------|
G|-4-4-4-4--4-4-4-4-4--4-4-4--4-|-2-2-2-2--2-2-2-2-2--2-2-2--2-|
D|-4-4-4-4--4-4-4-4-4--4-4-4--4-|-2-2-2-2--2-2-2-2-2--2-2-2--2-|
A|-2-2-2-2--2-2-2-2-2--2-2-2--2-|-0-0-0-0--0-0-0-0-0--0-0-0--0-|
D|------------------------------|------------------------------|
      We     missed      the          final       curtain

e|------------------------------|------------------------------|
B|------------------------------|------------------------------|
G|-4-4-4-4--4-4-4-4-4--4-4-4--4-|-2-2-2-2--2-2-2-2-2--2-2-2--2-|
D|-4-4-4-4--4-4-4-4-4--4-4-4--4-|-2-2-2-2--2-2-2-2-2--2-2-2--2-|
A|-2-2-2-2--2-2-2-2-2--2-2-2--2-|-0-0-0-0--0-0-0-0-0--0-0-0--0-|
D|------------------------------|------------------------------|
      Wel    -    come             back       the      silence

e|------------------------------|------------------------------|
B|------------------------------|------------------------------|
G|-4-4-4-4--4-4-4-4-4--4-4-4--4-|-4-4-4-4--4-4-4-4-4--4-4-4--4-|
D|-4-4-4-4--4-4-4-4-4--4-4-4--4-|-4-4-4-4--4-4-4-4-4--4-4-4--4-|
A|-2-2-2-2--2-2-2-2-2--2-2-2--2-|-2-2-2-2--2-2-2-2-2--2-2-2--2-|
D|------------------------------|------------------------------|
      It's       com  -  ing        round         a  - gain...

 - {played twice}
[Will - Tom plays usual riff]
e|-----------------|-----------------|-2-2-2-2-2-2-2-2-|-2-2-2-2-2-2-2-2-|
B|-----------------|-----------------|-3-3-3-3-3-3-3-3-|-3-3-3-3-3-3-3-3-|
G|-2-2-2-2-2-2-2-2-|-6-6-6-6-6-6-6-6-|-2-2-2-2-2-2-2-2-|-2-2-2-2-2-2-2-2-|
D|-2-2-2-2-2-2-2-2-|-6-6-6-6-6-6-6-6-|-0-0-0-0-0-0-0-0-|-0-0-0-0-0-0-0-0-|
A|-0-0-0-0-0-0-0-0-|-4-4-4-4-4-4-4-4-|-0-0-0-0-0-0-0-0-|-0-0-0-0-0-0-0-0-|
D|-----------------|-----------------|-0-0-0-0-0-0-0-0-|-0-0-0-0-0-0-0-0-|

 
[Will - Tom plays usual] - {played four times}
e|-----------------|-----------------|-2-2-2-2-2-2-2-2-|-2-2-2-2-2-2-2-2-|
B|-----------------|-----------------|-3-3-3-3-3-3-3-3-|-3-3-3-3-3-3-3-3-|
G|-2-2-2-2-2-2-2-2-|-6-6-6-6-6-6-6-6-|-2-2-2-2-2-2-2-2-|-2-2-2-2-2-2-2-2-|
D|-2-2-2-2-2-2-2-2-|-6-6-6-6-6-6-6-6-|-0-0-0-0-0-0-0-0-|-0-0-0-0-0-0-0-0-|
A|-0-0-0-0-0-0-0-0-|-4-4-4-4-4-4-4-4-|-0-0-0-0-0-0-0-0-|-0-0-0-0-0-0-0-0-|
D|-----------------|-----------------|-0-0-0-0-0-0-0-0-|-0-0-0-0-0-0-0-0-|
1) You make me feel  like  a   ma   -  chine,     silicone   and   cold
2) steel,  can  you  hear   yourself   think  of  everything that  you've
3) killed, there's a future    in      mould,     like  a  fungus, love
4) grows,   it  suffocates     and     chokes... 


[Both guitars]
e|-2-2-2-2-2-2-2-2-|-----------------|-2-2-2-2-2-2-2-2-|-----------------|
B|-3-3-3-3-3-3-3-3-|-----------------|-3-3-3-3-3-3-3-3-|-----------------|
G|-2-2-2-2-2-2-2-2-|-----------------|-2-2-2-2-2-2-2-2-|-----------------|
D|-0-0-0-0-0-0-0-0-|-----------------|-0-0-0-0-0-0-0-0-|-----------------|
A|-0-0-0-0-0-0-0-0-|-----------------|-0-0-0-0-0-0-0-0-|-----------------|
D|-0-0-0-0-0-0-0-0-|-----------------|-0-0-0-0-0-0-0-0-|-----------------|
                     Watch it unfold,                  from the front seat,

e|-2-2-2-2-2-2-2-2-|-----------------|-2-2-2-2-2-2-2-2-|-----------------|
B|-3-3-3-3-3-3-3-3-|-----------------|-3-3-3-3-3-3-3-3-|-----------------|
G|-2-2-2-2-2-2-2-2-|-----------------|-2-2-2-2-2-2-2-2-|-----------------|
D|-0-0-0-0-0-0-0-0-|-----------------|-0-0-0-0-0-0-0-0-|-----------------|
A|-0-0-0-0-0-0-0-0-|-----------------|-0-0-0-0-0-0-0-0-|-----------------|
D|-0-0-0-0-0-0-0-0-|-----------------|-0-0-0-0-0-0-0-0-|-----------------|
                     Got a star role,                   In the freak scene...


[Both guitars]
e|------------------------------|------------------------------|
B|------------------------------|------------------------------|
G|-4-4-4-4--4-4-4-4-4--4-4-4--4-|-2-2-2-2--2-2-2-2-2--2-2-2--2-|
D|-4-4-4-4--4-4-4-4-4--4-4-4--4-|-2-2-2-2--2-2-2-2-2--2-2-2--2-|
A|-2-2-2-2--2-2-2-2-2--2-2-2--2-|-0-0-0-0--0-0-0-0-0--0-0-0--0-|
D|------------------------------|------------------------------|
    There      goes      the       time,      it's      over

e|------------------------------|------------------------------|
B|------------------------------|------------------------------|
G|-4-4-4-4--4-4-4-4-4--4-4-4--4-|-2-2-2-2--2-2-2-2-2--2-2-2--2-|
D|-4-4-4-4--4-4-4-4-4--4-4-4--4-|-2-2-2-2--2-2-2-2-2--2-2-2--2-|
A|-2-2-2-2--2-2-2-2-2--2-2-2--2-|-0-0-0-0--0-0-0-0-0--0-0-0--0-|
D|------------------------------|------------------------------|
      We     missed      the          final       curtain

e|------------------------------|------------------------------|
B|------------------------------|------------------------------|
G|-4-4-4-4--4-4-4-4-4--4-4-4--4-|-2-2-2-2--2-2-2-2-2--2-2-2--2-|
D|-4-4-4-4--4-4-4-4-4--4-4-4--4-|-2-2-2-2--2-2-2-2-2--2-2-2--2-|
A|-2-2-2-2--2-2-2-2-2--2-2-2--2-|-0-0-0-0--0-0-0-0-0--0-0-0--0-|
D|------------------------------|------------------------------|
      Wel    -    come             back       the      silence

e|------------------------------|------------------------------|
B|------------------------------|------------------------------|
G|-4-4-4-4--4-4-4-4-4--4-4-4--4-|-2-2-2-2--2-2-2-2-2--2-2-2--2-|
D|-4-4-4-4--4-4-4-4-4--4-4-4--4-|-2-2-2-2--2-2-2-2-2--2-2-2--2-|
A|-2-2-2-2--2-2-2-2-2--2-2-2--2-|-0-0-0-0--0-0-0-0-0--0-0-0--0-|
D|------------------------------|------------------------------|
      It's       com  -  ing        round         a  - gain...


[both guitars - double time]
{played twice}
e|-2-2-2-2-2-2-2-2-|-2-2-2-2-2-2-2-2-|-----------------|-----------------|
B|-3-3-3-3-3-3-3-3-|-3-3-3-3-3-3-3-3-|-2-2-2-2-2-2-2-2-|-----------------|
G|-2-2-2-2-2-2-2-2-|-2-2-2-2-2-2-2-2-|-2-2-2-2-2-2-2-2-|-6-6-6-6-6-6-6-6-|
D|-0-0-0-0-0-0-0-0-|-0-0-0-0-0-0-0-0-|-2-2-2-2-2-2-2-2-|-4-4-4-4-4-4-4-4-|
A|-0-0-0-0-0-0-0-0-|-0-0-0-0-0-0-0-0-|-0-0-0-0-0-0-0-0-|-4-4-4-4-4-4-4-4-|
D|-0-0-0-0-0-0-0-0-|-0-0-0-0-0-0-0-0-|-----------------|-4-4-4-4-4-4-4-4-|
        It's              over,             the              silence,

 - {played twice} 
e|-2-2-2-2-2-2-2-2-|-----------------|-2-2-2-2-2-2-2-2-|-----------------|
B|-3-3-3-3-3-3-3-3-|-----------------|-3-3-3-3-3-3-3-3-|-----------------|
G|-2-2-2-2-2-2-2-2-|-----------------|-2-2-2-2-2-2-2-2-|-----------------|
D|-0-0-0-0-0-0-0-0-|-----------------|-0-0-0-0-0-0-0-0-|-----------------|
A|-0-0-0-0-0-0-0-0-|-----------------|-0-0-0-0-0-0-0-0-|-----------------|
D|-0-0-0-0-0-0-0-0-|-----------------|-0-0-0-0-0-0-0-0-|-----------------|                
		      (drum break)                        (drum break)              

[Both guitars]
e|-2-2-2-2-2-2-2-2-|-----------------|-2-2-2-2-2-2-2-2-|-----------------|
B|-3-3-3-3-3-3-3-3-|-----------------|-3-3-3-3-3-3-3-3-|-----------------|
G|-2-2-2-2-2-2-2-2-|-----------------|-2-2-2-2-2-2-2-2-|-----------------|
D|-0-0-0-0-0-0-0-0-|-----------------|-0-0-0-0-0-0-0-0-|-----------------|
A|-0-0-0-0-0-0-0-0-|-----------------|-0-0-0-0-0-0-0-0-|-----------------|
D|-0-0-0-0-0-0-0-0-|-----------------|-0-0-0-0-0-0-0-0-|-----------------|
                     Watch it unfold,                  from the front seat,

e|-2-2-2-2-2-2-2-2-|-----------------|-2-2-2-2-2-2-2-2-|-----------------||
B|-3-3-3-3-3-3-3-3-|-----------------|-3-3-3-3-3-3-3-3-|-----------------||
G|-2-2-2-2-2-2-2-2-|-----------------|-2-2-2-2-2-2-2-2-|-----------------||
D|-0-0-0-0-0-0-0-0-|-----------------|-0-0-0-0-0-0-0-0-|-----------------||
A|-0-0-0-0-0-0-0-0-|-----------------|-0-0-0-0-0-0-0-0-|-----------------||
D|-0-0-0-0-0-0-0-0-|-----------------|-0-0-0-0-0-0-0-0-|-----------------||
                     Got a star role,                   In the freak scene!


Текст, аккорды и табулатура для песни "This Is Why", исполняет "Hell Is For Heroes".
Используемые в песне аккорды можно найти в разделе Как брать аккорды. Аккорды для шестиструнной гитары. Другие песни можно найти на нашем сайте, воспользовавшись алфавитным указателем вверху страницы.


 
Ошибка в тексте? Выделите ошибку и нажмите Ctrl+Enter