Hell Is For Heroes - Night Vision

Ace song from the Brit-Metallers!!!

Tuning: Drop-D (D-A-D-G-B-E) low to high


Intro X4

Guitar 1

E-------------------
B--9~-7~------------
G-------6--6h7p6----           This is used the 1st,3rd and 4th time.
D-------------------           
A-------------------
D-------------------

E-------------------
B--9~-7~------------
G-------6~----------           This is used the 2nd time.
D-------------------
A-------------------
D-------------------

While Guitar 1 is doin that,Guitar 2 plays the rhythm chords. (A5 and F#5)

Guitar 2

E--------------------------------------
B--------------------------------------
G--2-2-2-2-2-2-2-----------------------        
D--2-2-2-2-2-2-2---4-4-4-4-4-4-4-------       
A--0-0-0-0-0-0-0---4-4-4-4-4-4-4-------
D------------------4-4-4-4-4-4-4-------

Just these chords played about 16 times each.



Verse X2

E--------------------------------------
B--9-9-9-9-9-9-9---6-6-6-6-6-6-6-------
G--9-9-9-9-9-9-9---6-6-6-6-6-6-6-------        
D--7-7-7-7-7-7-7---4-4-4-4-4-4-4-------       
A--7-7-7-7-7-7-7---4-4-4-4-4-4-4-------
D--7-7-7-7-7-7-7---4-4-4-4-4-4-4-------

Just listen to the song to get the strumming and picking patterns.


Pre-Chorus/Chorus
riff 1 
E-------------------------------------------------------------
B-------------------------------------------------------------
G-11-11-11-11/13/14-14-14-14/16-16/14-14/13-13-13-13-13-------      
D--x--x--x--x/-x/-x--x--x--x/-x--x/-x--x/-x--x--x--x--x-------
A--9--9--9--9/11/12-12-12-12/14-14/12-12/11-11-11-11-11-------
D-------------------------------------------------------------

riff 2
E---------------------------------------------------
B---------------------------------------------------
G-11-11-11-11/13/14-14-14-14/18-18-18-18-18---------      
D--x--x--x--x/-x/-x--x--x--x/-x--x--x--x--x---------     
A--9--9--9--9/11/12-12-12-12/16-16-16-16-16---------
D---------------------------------------------------

riff 3
E------------------------------------------------------
B-------------------------------------------------------
G--6-6-6-6-6-6-6-6-6-6-6-6--11-11-11/10-10--------------
D--6-6-6-6-6-6-6-6-6-6-6-6---x--x--x/-x--x--------------
A--4-4-4-4-4-4-4-4-4-4-4-4---9--9--9/-8--8--------------
D-------------------------------------------------------

repeat riff 1 and riff 2 again

then.........

E----------------------------    
B----------------------------
G--6-6-6-6-6-6-6-6-6-6-6-6---     Repeat as necessary
D--6-6-6-6-6-6-6-6-6-6-6-6---
A--4-4-4-4-4-4-4-4-4-4-4-4---
D----------------------------

Intro X4

Verse X2

Pre-Chorus/Chorus X2


Solo X2

E-------------------------------------------------------------------
B-------------------------------------------------------------------
G--6-6-6-6/7-7-7-7/9-9-9-9/11111111/13-13-13/14-14-14-14/16-16-16---
D--x-x-x-x/x-x-x-x/x-x-x-x/-x-x-x-x/-x--x--x/-x--x--x--x/-x--x--x---
A--4-4-4-4/5-5-5-5/7-7-7-7/-9-9-9-9/11-11-11/12-12-12-12/14-14-14---
D-------------------------------------------------------------------


E-----------------------------------------------
B------------------------7~---------------------
G--16/14-14-14-14/13~------6~-------------------
D---x/-x--x--x--x/-x------------4-4h7p4-4-------
A--14/12-12-12-12/11~-----------4-4h7p4-4-------
D-------------------------------4-4h7p4-4-------

Pre-Chorus/Chorus X1 (Riff 1,Riff 2 and Riff 4)

Intro x8


Outro

E----------------------------------------------
B----------------------------------------------    * Pick the notes in the chords
G--------9--9--9--9--9------6--6--6--6--6------  (I know it doesnt look very clear!)
D-------9--9--9--9--9------6--6--6--6--6-------
A----------------------------------------------
D----0h7--7--7--7--7----0h4--4--4--4--4--------

Repeated to fade

Enjoy Guys!!!!!!


Key

h = Hammer on
p = pull off
x = mute
/ = slide
~ = let note ring

Tabbed by James Graham (burnaway_fighter)
If any one has any corrections then e-mail on 
[email protected]


Текст, аккорды и табулатура для песни "Night Vision", исполняет "Hell Is For Heroes".
Используемые в песне аккорды можно найти в разделе Как брать аккорды. Аккорды для шестиструнной гитары. Другие песни можно найти на нашем сайте, воспользовавшись алфавитным указателем вверху страницы.


 
Ошибка в тексте? Выделите ошибку и нажмите Ctrl+Enter