My first tab... feel free to comment, but i wont be listening to abuse :)

----------------------------------------------------------------------
	      I Can Climb Mountains - Hell is For Heroes
----------------------------------------------------------------------

By: Bleech's Bass

Standard Tuning: EADGBe

=====================================================================
INTRO - (guitar 1) (x2)
e|---------------------------------------------------------|
B|---------------------------------------------------------|
G|-----------------------------------11-------11-------11--|
D|--------12-------12-------12----11-------11-------11-----|
A|-----12-------12-------12-----9--------9--------9--------|
E|--10-------10-------10-----------------------------------|
=====================================================================
VERSE - (guitar 1) (x4) 
e|---------------------------------------------------------|
B|---------------------------------------------------------|
G|-----------------------------------11-------11-------11--|
D|--------12-------12-------12----11-------11-------11-----|
A|-----12-------12-------12-----9--------9--------9--------|
E|--10-------10-------10-----------------------------------|

VERSE - (guitar 2) (x4)
e|---------------------------------------------------------|
B|---------------------------------------------------------|
G|--7-7-7-7-7-7-7-7-7-7-7-9-9-9-4-4-4-4-4-4-4-4-4-4-9-9-9--|
D|--7-7-7-7-7-7-7-7-7-7-7-9-9-9-4-4-4-4-4-4-4-4-4-4-9-9-9--|
A|--5-5-5-5-5-5-5-5-5-5-5-7-7-7-2-2-2-2-2-2-2-2-2-2-7-7-7--|
E|---------------------------------------------------------|
=====================================================================
CHORUS 

PART 1 - (x2)
e|---------------------------------------------------------|
B|---------------------------------------------------------|
G|--5-5-5-5-5-5-5-9-9-9-9-9-9-5-5-5-5-5-5-5-9-9-9-9-9-9-9--|
D|--5-5-5-5-5-5-5-9-9-9-9-9-9-5-5-5-5-5-5-5-9-9-9-9-9-9-9--|
A|--3-3-3-3-3-3-3-7-7-7-7-7-7-3-3-3-3-3-3-3-7-7-7-7-7-7-7--|
E|---------------------------------------------------------|

PART 2 - (x2)
e|---------------------------------------------------------|
B|---------------------------------------------------------|
G|--7-7-7-7-7-7-7-9-9-9-9-9-9-7-7-7-7-7-7-7-9-9-9-9-9-9-9--|
D|--7-7-7-7-7-7-7-9-9-9-9-9-9-7-7-7-7-7-7-7-9-9-9-9-9-9-9--|
A|--5-5-5-5-5-5-5-7-7-7-7-7-7-5-5-5-5-5-5-5-7-7-7-7-7-7-7--|
E|---------------------------------------------------------|
=====================================================================
VARIATION

PART 1 (x2)
e|---------------------------------------------------------|
B|---------------------------------------------------------|
G|--8-8-8-8-7-7-7-7-7-7-7-7-8-8-8-8-7-7-7-7-7-7-7-7-7-7-7--|
D|--8-8-8-8-7-7-7-7-7-7-7-7-8-8-8-8-7-7-7-7-7-7-7-7-7-7-7--|
A|--6-6-6-6-5-5-5-5-5-5-5-5-6-6-6-6-5-5-5-5-5-5-5-5-5-5-5--|
E|---------------------------------------------------------|

PART 2
e|--------------------------|
B|--------------------------|
G|--5-5-5-5-5-5-5-5-5-5-5-5-|
D|--5-5-5-5-5-5-5-5-5-5-5-5-|
A|--3-3-3-3-3-3-3-3-3-3-3-3-|
E|--------------------------|
=====================================================================
ENDING
e|----|
B|----|
G|--7-|
D|--7-|
A|--5-|
E|----|
=====================================================================

ORDER

INTRO
VERSE
CHORUS PART 1
CHORUS PART 2
CHORUS PART 1
CHORUS PART 2
VERSE
CHORUS PART 1
CHORUS PART 2
CHORUS PART 1
CHORUS PART 2
VARIATION PART 1
VARIATION PART 2
VARIATION PART 1
VARIATION PART 2
VERSE
ENDING

And there you go... it may not be 100% but it sounds ok to me....

What u guys think? (First tab for me and First tab for this song)


Текст, аккорды и табулатура для песни "I Can Climb Mountains", исполняет "Hell Is For Heroes".
Используемые в песне аккорды можно найти в разделе Как брать аккорды. Аккорды для шестиструнной гитары. Другие песни можно найти на нашем сайте, воспользовавшись алфавитным указателем вверху страницы.


 
Ошибка в тексте? Выделите ошибку и нажмите Ctrl+Enter