#---------------------------------PLEASE NOTE----------------------------------#
#This file is the author's own work and represents their interpretation of the #
#song. You may only use this file for private study, scholarship, or research. #
#------------------------------------------------------------------------------#

Title: I Can Climb Mountains
Artist: Hell Is For Heroes
Album: 

Instrument: 6 String Guitar

Tabbed by: mark brown ([email protected])

Tuning: Dropped D (D A D G B E)

Simple song won't take long 2 learn.  The harmonics r tapped (basically rest ur finger lightly over the 7th and 5th fret to get the bell sound!) and thats it enjoy and play along with this incredible song!!

Intro/Verse
Gtr 1 (clean)
   Harm----------------------------------------------------|
E|-------------------------------------------------------------------||
B|-------------------------------------------------------------------||
G|-------------------------------------------------||
D|-------------------------------------------------||
A|-------------------------------------------------||
D|-------------------------------------------------------------------||

Gtr 2(dist)
p.m-----------------------------------------------------------------|
E|-------------------------------------------------------------------||
B|-------------------------------------------------------------------||
G|---------------------------4-4-4-4-------------------------4-4-4-4-||
D|-0-0-0-0-0-0-0-0-0-0-0-0-0-4-4-4-4-4-4-4-4-4-4-4-4-4-4-4-4-4-4-4-4-||
A|-0-0-0-0-0-0-0-0-0-0-0-0-0-2-2-2-2-4-4-4-4-4-4-4-4-4-4-4-4-2-2-2-2-||
D|-0-0-0-0-0-0-0-0-0-0-0-0-0---------4-4-4-4-4-4-4-4-4-4-4-4---------||

Chorus
Gtrs 1&2
E|--------------------------------------------------------------------||
B|--------------------------------------------------------------------||
G|--------------4-4-4-------------4-4-4--------7-7-7-7-------7-7-7-7--||
D|-5-x-5-x-5-5--4-4-4--5-x-5-x-5--4-4-4--2-2-2-x-x-x-x-2-2-2-x-x-x-x--||
A|-5-x-5-x-5-5--2-2-2--5-x-5-x-5--2-2-2--2-2-2-5-5-5-5-2-2-2-5-5-5-5--||
D|-5-x-5-x-5-5---------5-x-5-x-5---------2-2-2---------2-2-2----------||

Bridge
Gtr 2  Gtr 1 (feedback from amp)
E|-------------------------------------------------------------------||
B|-------------------------------------------------------------------||
G|-------------------------------------------------------------------||
D|---------------------------------------------5--5--5--5--5--5------||
A|-----------0---------------------0-----------5--5--5--5--5--5------||
D|--8--8-8-8-0--8-8-8--0--8--8-8-8-0--8-8-8-0--5--5--5--5--5--5------||

Outro
Gtr 1 w/chorus
E|-------------------------------------------------||
B|-------------------------------------------------||
G|-7-7-7-7-7-7-7-7-7--1-1-1-1-2-2-2-2-2-1-1-1------||
D|-x-x-x-x-x-x-x-x-x--x-x-x-x-x-x-x-x-x-x-x-x------||
A|-5-5-5-5-5-5-5-5-5--0-0-0-0-0-0-0-0-0-0-0-0------||
D|-------------------------------------------------||

Gtr 1 & 2
E|-----------------||
B|-----------------||
G|-----------------||
D|--0--------------||
A|--0--------------||
D|--0--------------||


Текст, аккорды и табулатура для песни "I Can Climb Mountains", исполняет "Hell Is For Heroes".
Используемые в песне аккорды можно найти в разделе Как брать аккорды. Аккорды для шестиструнной гитары. Другие песни можно найти на нашем сайте, воспользовавшись алфавитным указателем вверху страницы.


 
Ошибка в тексте? Выделите ошибку и нажмите Ctrl+Enter