Song: Few Against Many
Artiste: Hell Is For Heroes
Album: Neon Handshake
Tabbed By : Mohamed Adel From Singapore


I'm Only 13 And This Is My First Tab. Hope You Like It. I'm Sorry I Couldn't
Figure Out The Whole Song.

Intro
e|--0-------0-------0-------------------------------|- 
b|--13(x32)-12(x16)-13(x16)-------------------------| |
g|--x-------x-------x-------------------------------|  }> Continue The 2nd & 3rd
D|--x-------x-------x-------------------------------|  }> Chords(the ones with
A|--x-------x-------x-------------------------------| |   (x16)Throughout all 
E|--x-------x-------x-------------------------------|-    the verses
 
I Couldn't Figure Out The Lead Guitar


Chorus
e|-------------------------------------------------| (2 times)
b|-------------------------------------------------|
g|-------------------------------------------------|
D|-x------7------5------2--------------------------|
A|-2------5------3------0--------------------------|
E|-0(x16)-x(x16)-x(x16)-x(x16)---------------------|

Bridge( From Chorus To Verse)
e|-------------------------------------------------|
b|-------------------------------------------------|
g|-------------------------------------------------|
D|---------8-8888-9--------------------------------|
A|-2---2---x-xxxx-x------2---2---555--444----------|
E|-0---0---6-6666-7(x3)--0---0---333--222----------|


Текст, аккорды и табулатура для песни "Few Against Many", исполняет "Hell Is For Heroes".
Используемые в песне аккорды можно найти в разделе Как брать аккорды. Аккорды для шестиструнной гитары. Другие песни можно найти на нашем сайте, воспользовавшись алфавитным указателем вверху страницы.


 
Ошибка в тексте? Выделите ошибку и нажмите Ctrl+Enter