Time is Ticking Away by De Heideroosjes
Tabbed by Vincent Slot - [email protected]

PM = Palm Mute

Intro/Verse Guitar1:

e|-------------------------------------------------------------|
B|-------------------------------------------------------------|
G|-11-11-1111-11-1111-11-1111-11-------------------------------|
D|-9--9--9-9--9--9-9--9--9-9--9--11-11-1111-11-1111-11-1111-11-|
A|-------------------------------9--9--9-9--9--9-9--9--9-9--9--|
E|-------------------------------------------------------------|
PM      . .     . .     . .           . .     . .     . .

Intro Guitar2 (and play these notes quietly in the Verse):
e|---------2------------|
B|-0-4-5-4----0-4-5-4-2-|
G|----------------------|
D|----------------------|
A|----------------------|
E|----------------------|

Chorus:
e|----------------------|
B|----------------------|
G|-7--------11-11-11-11-|< don't play these F#'s the last time!
D|-7---7-5--11-11-11-11-|
A|-5---7-5--9--9--9--9--|
E|-----5-3--------------|

Post-Chorus:
e|-------------------------------|
B|-------------------------------|
G|-11-11-------9---11-----9-11---|
D|-11-11-9-9-9-9---11-9-6-9-11-9-|
A|-9--9--9-9-9-7---9--9-6-7-9--9-|
E|-------7-7-7--------7-4------7-|

2nd Verse (each chord 16x):
e|-------|
B|--*----|
G|-7----*|
D|-7---7-|
A|-5---7-|
E|-----5-|

Chorus

Post-Chorus

And that's it! You can figure out how many times you play each riff
yourself, that won't be a big problem.

Vincent


Текст, аккорды и табулатура для песни "Time Is Ticking Away", исполняет "Heideroosjes".
Используемые в песне аккорды можно найти в разделе Как брать аккорды. Аккорды для шестиструнной гитары. Другие песни можно найти на нашем сайте, воспользовавшись алфавитным указателем вверху страницы.


Слушать онлайн Time Is Ticking Away


De HeideroosjesTime Is Ticking Away на Яндекс.Музыке


 
Ошибка в тексте? Выделите ошибку и нажмите Ctrl+Enter