Tabbed by:THE SANDMAN
Email:[email protected]


Verse:
----------------------------------|--------------------------
----------------------------------|--------------------------
----------------------------------|--------------------------
------------4------------4—x-x---|-----------4----------4---
------------2------------2—x-x---|---4h5p42-2---4h5p4--2---
---2h3p21------2h3p21-----x-x---|--------------------------

Chorus:
gtr1:
------14----13------14------13-12-------14----9-8-----------
-------------------------------------------------------12---
---11----11------11----11------------11----11-----11--------
-----------------------------------------------------9------
------------------------------------------------------------
------------------------------------------------------------

gtr2:     x3         then:
------------------|---------------------
------------------|---------------------
------------------|---------------------
------------------|-----------------3---
------2---3-------|-----2---1h2p1-------
---1----1---2-0---|---1---1-------2-----

Bridge:
---------------------------------------------------------
---------------------------------------------------------
-----------------------4-----------------------------4---
-----------4---------4-3-4------------4------------4-3---
---2-3-2-1-2---2-3-2-2---2----2-3-2-1-2----2-3-2-0-2-----
---2-3-2-1-----2-3-2----------2-3-2-1------2-3-2-0-------

Bridge 2:
----------------------------
----------------------------
---109-9--87-7--7-87-7---
---109-9--87-7--7-87-7---
---87-7--65-5--5-65-5---
----------------------------

Bridge 3:
---------------------
---------------------
---------------------
---4---7-----4---7---
---2---5-----2---5---
---------------------


Текст, аккорды и табулатура для песни "Serpent Boy", исполняет "Hed Pe".
Используемые в песне аккорды можно найти в разделе Как брать аккорды. Аккорды для шестиструнной гитары. Другие песни можно найти на нашем сайте, воспользовавшись алфавитным указателем вверху страницы.


 
Ошибка в тексте? Выделите ошибку и нажмите Ctrl+Enter