Stem
By: Paul Desser
From: Dave Robertson
Song: “Stem” by “Hayden”
Album: “everything i long for”(1995)

******************************************
* Tune down a whole step (if you'd like) *
******************************************

Intro/Outro:
D|--2--2--0--0--0--0----10--10--9--9---0---7--7---0-----|
A|--3--3--3--3--3--3----0---0---0--0---0---0--0---0-----| 
F|--2--2--2--2--2--2----0---0---0--0-------0--0---------|  Repeat
C|--0--0--0--0--0--0------------------------------------|
G|------------------------------------------------------|
D|------------------------------------------------------|

Verse:
D|---2----2---2-------2--------------3---------3------3---------
A|---3----3---3-------3--------------3---------3------3---------
F|---2----0---2-------2--------------0---------0------0---------
C|---0----0---0-------0-----------------------------------------
G|-----------------------------------------2-------2------------
D|--------------------------------------------------------------
               1) I bought a rose     To give to you
               2) From the stem       On to the street
               3) I got to your door  You looked to see
               4) You let me in       And I just froze 

|----------3------3----------------3-----------3---------------------
|----------3------3----------------3-----------3--------------------- 
|----------0------0----------------0-----------0--------------------- 
|-------2---------2----------------0-----------0---------------------
|-------------0--------------------2-----------2---0/2-0------------- 
|-------------------------------3-----------3--3---------------------
 1)  A windy day              The petals flew
 2) I tried to catch them     With my feet
 3) Through the peephole      Right at me
 4) I gave you a stem         It was a rose          Was a rose
====


Текст, аккорды и табулатура для песни "Stem", исполняет "Hayden".
Используемые в песне аккорды можно найти в разделе Как брать аккорды. Аккорды для шестиструнной гитары. Другие песни можно найти на нашем сайте, воспользовавшись алфавитным указателем вверху страницы.


 
Ошибка в тексте? Выделите ошибку и нажмите Ctrl+Enter