30 - PJ Harvey
--------------
It's a b-side of the single GOOD FORTUNE CDS 2

20/05/02 22:55 milan
transcribed by Elena Capolongo ([email protected] or [email protected])

this is the tab of the version played at Olympia (paris) on 26/02/01. 
I think it's ok for the album's version too, but I don't know because I haven't 
listened to it yet. I'm sorry for my errors, but it is the first tab I write... >:)
if you have some others pj harvey's tab send me an email! Bye...


  [riff 1]
e|---------------------------------------------------------------------------|
B|---------------------------------------------------------------------------|
G|---------------------------------------------------------------------------|
D|--5-5-5-5--8-8-8-8-8-8-8-8--13-13-13-13--12-12-12-12-12-12-12-12--5etc-----|
A|--5-5-5-5--8-8-8-8-8-8-8-8--13-13-13-13--12-12-12-12-12-12-12-12--5etc-----|
E|--3-3-3-3--6-6-6-6-6-6-6-6--11-11-11-11--10-10-10-10-10-10-10-10--3etc-----|


 [riff 2]
e|-----------------------------------------|      
B|-----------------------------------------|
G|-----------------------------------------| x 2  
D|--11-11-11-11--10-10-10-10-10-10-10-10---|     
A|--11-11-11-11--10-10-10-10-10-10-10-10---|
E|--13-13-13-13--12-12-12-12-12-12-12-12---|


e|-----------------------------------------|
B|-----------------------------------------|
G|-----------------------------------------| x 2
D|--10-10-10-10--8-8-8-8-8-8-8-8-----------|
A|--10-10-10-10--8-8-8-8-8-8-8-8-----------|
E|---8--8--8--8--6-6-6-6-6-6-6-6-----------|


Lyrics :

[riff 1] ---> play it 4 times
Over my body the shadows played           
it wasn't night and it wasn't day              
Counting something what have I found   
30 diamonds in my hand

[riff 2] ---> play it 1 time
30 miles
A world unfolds
30 miles
A pot of gold

[riff 1] ---> play it 4 times
I often think of America
I often dream of shooting a gun
30 years I'm still a child
Looking for something in a smile

[riff 2] ---> play it 2 time
30 miles
A world unfolds
30 miles
A pot of gold
Listen here
in my song
30 miles
won't be long

[riff 1] ---> play it 4 times 

[riff 1] ---> play it 6 times
30 diamonds Birds of fire
Sparkle like the summer sky
30 diamonds 30 miles
Looking for something in your smile
I'm looking for something in your smile
I'm looking for something 

[riff 1] ---> until the end

end with Gm [355xxx]


Текст, аккорды и табулатура для песни "30", исполняет "Harvey P J".
Используемые в песне аккорды можно найти в разделе Как брать аккорды. Аккорды для шестиструнной гитары. Другие песни можно найти на нашем сайте, воспользовавшись алфавитным указателем вверху страницы.


Слушать онлайн 5oft Queenie


The Minister Of Soundalikes5oft Queenie на Яндекс.Музыке


 
Ошибка в тексте? Выделите ошибку и нажмите Ctrl+Enter