email me with any mistakes or post them my e-mail is [email protected]

/:slide
        
6----14/16---14---12-----12/14--[--12------------
5-------------------------------[------14------14
4-------------------------------[----------------
3-------------------------------[----------------
2-------------------------------[----------------
1-------------------------------[----------------


6--14/16---14--12---12/14---[-12----------12---------
5---------------------------[----14-12/14----14---12-
4---------------------------[------------------------
3---------------------------[------------------------
2---------------------------[------------------------
1---------------------------[------------------------
Continued from above
6-14/12---14-/-12---16-
5----------------------
4----------------------
3----------------------
2----------------------
1----------------------


6-13-13-/-10--10-/-7--7---10-[-9----9----9--7-------
5----------------------------[----------------------
4----------------------------[----------------9-/-7-
3----------------------------[----------------------
2----------------------------[----------------------
1----------------------------[----------------------


Текст, аккорды и табулатура для песни "My Sweet Lord", исполняет "Harrison George".
Используемые в песне аккорды можно найти в разделе Как брать аккорды. Аккорды для шестиструнной гитары. Другие песни можно найти на нашем сайте, воспользовавшись алфавитным указателем вверху страницы.


Слушать онлайн My Sweet Lord


Zoom KaraokeMy Sweet Lord на Яндекс.Музыке


 
Ошибка в тексте? Выделите ошибку и нажмите Ctrl+Enter