-------------------------------------------------------------------------------
			     My Sweet Lord - George Harrison
-------------------------------------------------------------------------------

You will need a slide to play this song correctly.
And I'm sure that the guitar (lead) has a different tuning:

e
A#  (Tune down the B string to A#)
G
D
A
E


INTRO:

e |-16--1412--12/14--12-------------16--1412--12/14--12--------------------|
A#|-----------------------15--15---------------------------15-------18-------|
G |-----------------------------------------------------------16/18----1816-|
D |--------------------------------------------------------------------------|
A |--------------------------------------------------------------------------|
E |--------------------------------------------------------------------------|


e |-16--1412---1613---1310---107---7/10---13-----------------------------|
A#|-------------1613---1310---107---7/10---13---15---15---1513---108----|
G |------------------------------------------------14---14---1413----98----|
D |--------------------------------------------------------------------------|
A |--------------------------------------------------------------------------|
E |--------------------------------------------------------------------------|



SOLO:

e |-18--1614--14/16--14------------------18--1614--14/16--14---------------|
A#|----------------------17--1715-----------------------------17---------20-|
G |--------------------------------15-----------------------------18/20-----|
D |--------------------------------------------------------------------------|
A |--------------------------------------------------------------------------|
E |--------------------------------------------------------------------------|


e |------------18---1614----1815---1512---129---9/12---15----------------|
A#|--------------------------1815---1512---129---9/12---15----17----17----|
G |--2018-------------------------------------------------------16----16----|
D |--------------------------------------------------------------------------|
A |--------------------------------------------------------------------------|
E |--------------------------------------------------------------------------|


e |--------------------------------------------------------------------------|
A#|---1715-----1210--------------------------------------------------------|
G |---1615-----1110--------------------------------------------------------|
D |--------------------------------------------------------------------------|
A |--------------------------------------------------------------------------|
E |--------------------------------------------------------------------------|
 
* you'll need to use your finger for the last 2 slides down.

That's about everything the lead guitar does. The intro goes clean and the
switch to the left while the solo has some distortion with the switch to the
right, right?.
This different tuning is absolutely correct, there's no other way of playing it.
It's totally worth to try it and a slide shouldn't cost more than $10.

As for the chords they go like:

(capo = 2nd)

Em - A7 (VERSE)
D - Bm - D - Bm - D - D#dim (CHORUS) 
D - D7 - B - E - Fdim (BRIDGE)

F#m - B7 (VERSE)
E - C#m - E - C#m - E - Fdim (CHORUS)

      EADGBE
D#dim:XX1212
Fdim :XX3434


| /  slide up
|   slide down


Any comment, sugestion, question ... [email protected]
[email protected]==============


Текст, аккорды и табулатура для песни "My Sweet Lord", исполняет "Harrison George".
Используемые в песне аккорды можно найти в разделе Как брать аккорды. Аккорды для шестиструнной гитары. Другие песни можно найти на нашем сайте, воспользовавшись алфавитным указателем вверху страницы.


Слушать онлайн My Sweet Lord


Zoom KaraokeMy Sweet Lord на Яндекс.Музыке


 
Ошибка в тексте? Выделите ошибку и нажмите Ctrl+Enter